  0
SECTION
  2
HEADER
  9
$ACADVER
  1
AC1014
  9
$ACADMAINTVER
 70
     5
  9
$DWGCODEPAGE
  3
ANSI_1252
  9
$INSBASE
 10
0.0
 20
0.0
 30
0.0
  9
$EXTMIN
 10
-8.870611
 20
-8.841794
 30
0.0
  9
$EXTMAX
 10
474.783152
 20
611.669859
 30
0.0
  9
$LIMMIN
 10
0.0
 20
0.0
  9
$LIMMAX
 10
420.0
 20
297.0
  9
$ORTHOMODE
 70
     1
  9
$REGENMODE
 70
     1
  9
$FILLMODE
 70
     1
  9
$QTEXTMODE
 70
     0
  9
$MIRRTEXT
 70
     0
  9
$DRAGMODE
 70
     2
  9
$LTSCALE
 40
1.0
  9
$OSMODE
 70
    39
  9
$ATTMODE
 70
     1
  9
$TEXTSIZE
 40
3.5
  9
$TRACEWID
 40
0.05
  9
$TEXTSTYLE
  7
ROMANS
  9
$CLAYER
  8
0
  9
$CELTYPE
  6
BYLAYER
  9
$CECOLOR
 62
   256
  9
$CELTSCALE
 40
1.0
  9
$DELOBJ
 70
     1
  9
$DISPSILH
 70
     0
  9
$DIMSCALE
 40
1.0
  9
$DIMASZ
 40
2.5
  9
$DIMEXO
 40
1.5
  9
$DIMDLI
 40
5.0
  9
$DIMRND
 40
0.0
  9
$DIMDLE
 40
0.0
  9
$DIMEXE
 40
1.0
  9
$DIMTP
 40
0.0
  9
$DIMTM
 40
0.0
  9
$DIMTXT
 40
3.0
  9
$DIMCEN
 40
0.0
  9
$DIMTSZ
 40
0.0
  9
$DIMTOL
 70
     0
  9
$DIMLIM
 70
     0
  9
$DIMTIH
 70
     0
  9
$DIMTOH
 70
     0
  9
$DIMSE1
 70
     0
  9
$DIMSE2
 70
     0
  9
$DIMTAD
 70
     1
  9
$DIMZIN
 70
     8
  9
$DIMBLK
  1

  9
$DIMASO
 70
     1
  9
$DIMSHO
 70
     1
  9
$DIMPOST
  1

  9
$DIMAPOST
  1

  9
$DIMALT
 70
     0
  9
$DIMALTD
 70
     2
  9
$DIMALTF
 40
25.4
  9
$DIMLFAC
 40
1.0
  9
$DIMTOFL
 70
     1
  9
$DIMTVP
 40
0.0
  9
$DIMTIX
 70
     0
  9
$DIMSOXD
 70
     0
  9
$DIMSAH
 70
     0
  9
$DIMBLK1
  1

  9
$DIMBLK2
  1

  9
$DIMSTYLE
  2
STANDAARD
  9
$DIMCLRD
 70
   256
  9
$DIMCLRE
 70
   256
  9
$DIMCLRT
 70
     2
  9
$DIMTFAC
 40
0.75
  9
$DIMGAP
 40
1.0
  9
$DIMJUST
 70
     0
  9
$DIMSD1
 70
     0
  9
$DIMSD2
 70
     0
  9
$DIMTOLJ
 70
     1
  9
$DIMTZIN
 70
     8
  9
$DIMALTZ
 70
     8
  9
$DIMALTTZ
 70
     8
  9
$DIMFIT
 70
     0
  9
$DIMUPT
 70
     0
  9
$DIMUNIT
 70
     2
  9
$DIMDEC
 70
     2
  9
$DIMTDEC
 70
     2
  9
$DIMALTU
 70
     2
  9
$DIMALTTD
 70
     2
  9
$DIMTXSTY
  7
ROMANS
  9
$DIMAUNIT
 70
     0
  9
$LUNITS
 70
     2
  9
$LUPREC
 70
     2
  9
$SKETCHINC
 40
0.1
  9
$FILLETRAD
 40
10.0
  9
$AUNITS
 70
     0
  9
$AUPREC
 70
     2
  9
$MENU
  1
wtb2
  9
$ELEVATION
 40
0.0
  9
$PELEVATION
 40
0.0
  9
$THICKNESS
 40
0.0
  9
$LIMCHECK
 70
     0
  9
$BLIPMODE
 70
     0
  9
$CHAMFERA
 40
1.6
  9
$CHAMFERB
 40
2.5
  9
$CHAMFERC
 40
0.0
  9
$CHAMFERD
 40
0.0
  9
$SKPOLY
 70
     0
  9
$TDCREATE
 40
2452466.423157523
  9
$TDUPDATE
 40
2452466.675584861
  9
$TDINDWG
 40
0.0061060417
  9
$TDUSRTIMER
 40
0.0061060417
  9
$USRTIMER
 70
     1
  9
$ANGBASE
 50
0.0
  9
$ANGDIR
 70
     0
  9
$PDMODE
 70
     3
  9
$PDSIZE
 40
0.0
  9
$PLINEWID
 40
0.0
  9
$COORDS
 70
     2
  9
$SPLFRAME
 70
     0
  9
$SPLINETYPE
 70
     6
  9
$SPLINESEGS
 70
     8
  9
$ATTDIA
 70
     0
  9
$ATTREQ
 70
     1
  9
$HANDLING
 70
     1
  9
$HANDSEED
  5
197B
  9
$SURFTAB1
 70
     6
  9
$SURFTAB2
 70
     6
  9
$SURFTYPE
 70
     6
  9
$SURFU
 70
     6
  9
$SURFV
 70
     6
  9
$UCSNAME
  2

  9
$UCSORG
 10
0.0
 20
0.0
 30
0.0
  9
$UCSXDIR
 10
1.0
 20
0.0
 30
0.0
  9
$UCSYDIR
 10
0.0
 20
1.0
 30
0.0
  9
$PUCSNAME
  2

  9
$PUCSORG
 10
0.0
 20
0.0
 30
0.0
  9
$PUCSXDIR
 10
1.0
 20
0.0
 30
0.0
  9
$PUCSYDIR
 10
0.0
 20
1.0
 30
0.0
  9
$USERI1
 70
     0
  9
$USERI2
 70
     0
  9
$USERI3
 70
     0
  9
$USERI4
 70
     0
  9
$USERI5
 70
     0
  9
$USERR1
 40
0.0
  9
$USERR2
 40
0.0
  9
$USERR3
 40
0.0
  9
$USERR4
 40
0.0
  9
$USERR5
 40
0.0
  9
$WORLDVIEW
 70
     1
  9
$SHADEDGE
 70
     3
  9
$SHADEDIF
 70
    70
  9
$TILEMODE
 70
     1
  9
$MAXACTVP
 70
    16
  9
$PINSBASE
 10
0.0
 20
0.0
 30
0.0
  9
$PLIMCHECK
 70
     0
  9
$PEXTMIN
 10
1.000000E+20
 20
1.000000E+20
 30
1.000000E+20
  9
$PEXTMAX
 10
-1.000000E+20
 20
-1.000000E+20
 30
-1.000000E+20
  9
$PLIMMIN
 10
0.0
 20
0.0
  9
$PLIMMAX
 10
12.0
 20
9.0
  9
$UNITMODE
 70
     0
  9
$VISRETAIN
 70
     0
  9
$PLINEGEN
 70
     0
  9
$PSLTSCALE
 70
     0
  9
$TREEDEPTH
 70
  3020
  9
$PICKSTYLE
 70
     1
  9
$CMLSTYLE
  2
STANDARD
  9
$CMLJUST
 70
     0
  9
$CMLSCALE
 40
1.0
  9
$PROXYGRAPHICS
 70
     1
  9
$MEASUREMENT
 70
     1
  0
ENDSEC
  0
SECTION
  2
CLASSES
  0
CLASS
  1
LWPOLYLINE
  2
AcDbPolyline
  3
"AutoCAD"
 90
        0
280
     0
281
     1
  0
CLASS
  1
AMLOADER
  2
AMLoader
  3
AMAcad
 90
        0
280
     0
281
     0
  0
ENDSEC
  0
SECTION
  2
TABLES
  0
TABLE
  2
VPORT
  5
8
100
AcDbSymbolTable
 70
     2
  0
VPORT
  5
197A
100
AcDbSymbolTableRecord
100
AcDbViewportTableRecord
  2
*ACTIVE
 70
     0
 10
0.0
 20
0.0
 11
1.0
 21
1.0
 12
232.95627
 22
301.414032
 13
0.0
 23
0.0
 14
2.5
 24
2.5
 15
5.0
 25
5.0
 16
0.0
 26
0.0
 36
1.0
 17
0.0
 27
0.0
 37
0.0
 40
627.496776
 41
1.650376
 42
50.0
 43
0.0
 44
0.0
 50
0.0
 51
0.0
 71
     0
 72
 20000
 73
     1
 74
     0
 75
     0
 76
     0
 77
     0
 78
     1
  0
ENDTAB
  0
TABLE
  2
LTYPE
  5
5
100
AcDbSymbolTable
 70
     1
  0
LTYPE
  5
12
100
AcDbSymbolTableRecord
100
AcDbLinetypeTableRecord
  2
BYBLOCK
 70
     0
  3

 72
    65
 73
     0
 40
0.0
  0
LTYPE
  5
13
100
AcDbSymbolTableRecord
100
AcDbLinetypeTableRecord
  2
BYLAYER
 70
     0
  3

 72
    65
 73
     0
 40
0.0
  0
LTYPE
  5
14
100
AcDbSymbolTableRecord
100
AcDbLinetypeTableRecord
  2
CONTINUOUS
 70
     0
  3
Solid line
 72
    65
 73
     0
 40
0.0
  0
ENDTAB
  0
TABLE
  2
LAYER
  5
2
100
AcDbSymbolTable
 70
     4
  0
LAYER
  5
F
100
AcDbSymbolTableRecord
100
AcDbLayerTableRecord
  2
0
 70
     0
 62
     8
  6
CONTINUOUS
  0
LAYER
  5
999
100
AcDbSymbolTableRecord
100
AcDbLayerTableRecord
  2
VHH-050
 70
     0
 62
     4
  6
CONTINUOUS
  0
LAYER
  5
99A
100
AcDbSymbolTableRecord
100
AcDbLayerTableRecord
  2
VHH-025
 70
     0
 62
     7
  6
CONTINUOUS
  0
LAYER
  5
99B
100
AcDbSymbolTableRecord
100
AcDbLayerTableRecord
  2
VHH-070
 70
     0
 62
     4
  6
CONTINUOUS
  0
ENDTAB
  0
TABLE
  2
STYLE
  5
3
100
AcDbSymbolTable
 70
     2
  0
STYLE
  5
10
100
AcDbSymbolTableRecord
100
AcDbTextStyleTableRecord
  2
STANDARD
 70
     0
 40
0.0
 41
1.0
 50
0.0
 71
     0
 42
15.0
  3
txt
  4

  0
STYLE
  5
1C
100
AcDbSymbolTableRecord
100
AcDbTextStyleTableRecord
  2
ROMANS
 70
     0
 40
0.0
 41
1.0
 50
0.0
 71
     0
 42
3.5
  3
romans
  4

  0
ENDTAB
  0
TABLE
  2
VIEW
  5
6
100
AcDbSymbolTable
 70
     2
  0
VIEW
  5
600
100
AcDbSymbolTableRecord
100
AcDbViewTableRecord
  2
VIEW0
 70
     0
 40
297.0
 10
210.0
 20
148.5
 41
420.0
 11
0.0
 21
0.0
 31
1.0
 12
0.0
 22
0.0
 32
0.0
 42
50.0
 43
0.0
 44
0.0
 50
0.0
 71
     0
  0
VIEW
  5
601
100
AcDbSymbolTableRecord
100
AcDbViewTableRecord
  2
VIEW1
 70
     0
 40
297.0
 10
210.0
 20
148.5
 41
420.0
 11
0.0
 21
0.0
 31
1.0
 12
0.0
 22
0.0
 32
0.0
 42
50.0
 43
0.0
 44
0.0
 50
0.0
 71
     0
  0
ENDTAB
  0
TABLE
  2
UCS
  5
7
100
AcDbSymbolTable
 70
     0
  0
ENDTAB
  0
TABLE
  2
APPID
  5
9
100
AcDbSymbolTable
 70
     3
  0
APPID
  5
11
100
AcDbSymbolTableRecord
100
AcDbRegAppTableRecord
  2
ACAD
 70
     0
  0
APPID
  5
37E
100
AcDbSymbolTableRecord
100
AcDbRegAppTableRecord
  2
ADMEPROFILELINK
 70
     0
  0
APPID
  5
974
100
AcDbSymbolTableRecord
100
AcDbRegAppTableRecord
  2
AMACAD
 70
     0
  0
ENDTAB
  0
TABLE
  2
DIMSTYLE
  5
A
100
AcDbSymbolTable
 70
     2
  0
DIMSTYLE
105
4E
100
AcDbSymbolTableRecord
100
AcDbDimStyleTableRecord
  2
STANDARD
 70
     0
  3

  4

  5

  6

  7

 40
1.0
 41
2.2
 42
1.5
 43
7.0
 44
1.2
 45
0.0
 46
0.0
 47
0.0
 48
0.0
140
2.5
141
-3.0
142
0.0
143
25.4
144
1.0
145
0.0
146
1.0
147
0.5
 71
     0
 72
     0
 73
     0
 74
     0
 75
     0
 76
     0
 77
     1
 78
     8
170
     0
171
     2
172
     1
173
     0
174
     0
175
     0
176
   256
177
   256
178
     2
270
     2
271
     4
272
     4
273
     2
274
     2
340
10
275
     0
280
     0
281
     0
282
     0
283
     1
284
     0
285
     0
286
     0
287
     3
288
     0
  0
DIMSTYLE
105
190
100
AcDbSymbolTableRecord
100
AcDbDimStyleTableRecord
  2
STANDAARD
 70
     0
  3

  4

  5

  6

  7

 40
1.0
 41
2.5
 42
1.5
 43
5.0
 44
1.0
 45
0.0
 46
0.0
 47
0.0
 48
0.0
140
3.0
141
0.0
142
0.0
143
25.4
144
1.0
145
0.0
146
0.75
147
1.0
 71
     0
 72
     0
 73
     0
 74
     0
 75
     0
 76
     0
 77
     1
 78
     8
170
     0
171
     2
172
     1
173
     0
174
     0
175
     0
176
   256
177
   256
178
     2
270
     2
271
     2
272
     2
273
     2
274
     2
340
1C
275
     0
280
     0
281
     0
282
     0
283
     1
284
     8
285
     8
286
     8
287
     0
288
     0
  0
ENDTAB
  0
TABLE
  2
BLOCK_RECORD
  5
1
100
AcDbSymbolTable
 70
     4
  0
BLOCK_RECORD
  5
18
100
AcDbSymbolTableRecord
100
AcDbBlockTableRecord
  2
*MODEL_SPACE
  0
BLOCK_RECORD
  5
15
100
AcDbSymbolTableRecord
100
AcDbBlockTableRecord
  2
*PAPER_SPACE
  0
BLOCK_RECORD
  5
1B2
100
AcDbSymbolTableRecord
100
AcDbBlockTableRecord
  2
TEK_INFO
  0
BLOCK_RECORD
  5
98A
100
AcDbSymbolTableRecord
100
AcDbBlockTableRecord
  2
A$C7A7B4A19
  0
BLOCK_RECORD
  5
98F
100
AcDbSymbolTableRecord
100
AcDbBlockTableRecord
  2
A$C605007EB
  0
BLOCK_RECORD
  5
994
100
AcDbSymbolTableRecord
100
AcDbBlockTableRecord
  2
A$C32063EEB
  0
ENDTAB
  0
ENDSEC
  0
SECTION
  2
BLOCKS
  0
BLOCK
  5
46
100
AcDbEntity
  8
0
100
AcDbBlockBegin
  2
*MODEL_SPACE
 70
     0
 10
0.0
 20
0.0
 30
0.0
  3
*MODEL_SPACE
  1

  0
ENDBLK
  5
47
100
AcDbEntity
  8
0
100
AcDbBlockEnd
  0
BLOCK
  5
44
100
AcDbEntity
 67
     1
  8
0
100
AcDbBlockBegin
  2
*PAPER_SPACE
 70
     0
 10
0.0
 20
0.0
 30
0.0
  3
*PAPER_SPACE
  1

  0
ENDBLK
  5
45
100
AcDbEntity
 67
     1
  8
0
100
AcDbBlockEnd
  0
BLOCK
  5
1B9
100
AcDbEntity
  8
0
100
AcDbBlockBegin
  2
TEK_INFO
 70
     2
 10
0.0
 20
0.0
 30
0.0
  3
TEK_INFO
  1

  0
ATTDEF
  5
276
100
AcDbEntity
  8
0
100
AcDbText
 10
15.0
 20
31.5
 30
0.0
 40
2.5
  1
A3
  7
ROMANS
100
AcDbAttributeDefinition
  3

  2
FORMAAT
 70
     9
  0
ATTDEF
  5
277
100
AcDbEntity
  8
0
100
AcDbText
 10
15.0
 20
27.5
 30
0.0
 40
2.5
  1
hor
  7
ROMANS
100
AcDbAttributeDefinition
  3

  2
POSITIE
 70
     9
  0
ATTDEF
  5
278
100
AcDbEntity
  8
0
100
AcDbText
 10
15.0
 20
23.5
 30
0.0
 40
2.5
  1
1
  7
ROMANS
100
AcDbAttributeDefinition
  3

  2
AANTAL
 70
     9
  0
ATTDEF
  5
279
100
AcDbEntity
  8
0
100
AcDbText
 10
15.0
 20
19.5
 30
0.0
 40
2.5
  1
1
  7
ROMANS
100
AcDbAttributeDefinition
  3

  2
TEKSCHAAL
 70
     9
  0
ATTDEF
  5
27A
100
AcDbEntity
  8
0
100
AcDbText
 10
15.0
 20
15.5
 30
0.0
 40
2.5
  1
1
  7
ROMANS
100
AcDbAttributeDefinition
  3

  2
SNAPSCHAAL
 70
     9
  0
ATTDEF
  5
27B
100
AcDbEntity
  8
0
100
AcDbText
 10
15.0
 20
11.5
 30
0.0
 40
2.5
  1
1
  7
ROMANS
100
AcDbAttributeDefinition
  3

  2
BLADAANTAL
 70
     9
  0
ENDBLK
  5
1BA
100
AcDbEntity
  8
0
100
AcDbBlockEnd
  0
BLOCK
  5
98D
100
AcDbEntity
  8
0
100
AcDbBlockBegin
  2
A$C7A7B4A19
 70
     0
 10
0.0
 20
0.0
 30
0.0
  3
A$C7A7B4A19
  1

  0
LINE
  5
98B
100
AcDbEntity
  8
VHH-050
100
AcDbLine
 10
0.000002
 20
17.677669
 30
0.0
 11
35.355341
 21
17.677669
 31
0.0
  0
LINE
  5
98C
100
AcDbEntity
  8
VHH-050
100
AcDbLine
 10
17.677671
 20
-0.000001
 30
0.0
 11
17.677671
 21
35.355338
 31
0.0
  0
ENDBLK
  5
98E
100
AcDbEntity
  8
0
100
AcDbBlockEnd
  0
BLOCK
  5
992
100
AcDbEntity
  8
0
100
AcDbBlockBegin
  2
A$C605007EB
 70
     0
 10
0.0
 20
0.0
 30
0.0
  3
A$C605007EB
  1

  0
LINE
  5
990
100
AcDbEntity
  8
VHH-050
100
AcDbLine
 10
0.000002
 20
25.000002
 30
0.0
 11
25.000002
 21
0.000002
 31
0.0
  0
LINE
  5
991
100
AcDbEntity
  8
VHH-050
100
AcDbLine
 10
0.000002
 20
0.000002
 30
0.0
 11
25.000002
 21
25.000002
 31
0.0
  0
ENDBLK
  5
993
100
AcDbEntity
  8
0
100
AcDbBlockEnd
  0
BLOCK
  5
997
100
AcDbEntity
  8
0
100
AcDbBlockBegin
  2
A$C32063EEB
 70
     0
 10
0.0
 20
0.0
 30
0.0
  3
A$C32063EEB
  1

  0
CIRCLE
  5
995
100
AcDbEntity
  8
VHH-050
100
AcDbCircle
 10
8.838839
 20
8.838837
 30
0.0
 40
1.838835
  0
CIRCLE
  5
996
100
AcDbEntity
  8
VHH-050
100
AcDbCircle
 10
8.838839
 20
8.838837
 30
0.0
 40
8.838835
  0
ENDBLK
  5
998
100
AcDbEntity
  8
0
100
AcDbBlockEnd
  0
ENDSEC
  0
SECTION
  2
ENTITIES
  0
INSERT
  5
27C
100
AcDbEntity
  8
0
100
AcDbBlockReference
 66
     1
  2
TEK_INFO
 10
0.0
 20
0.0
 30
0.0
  0
ATTRIB
  5
27D
100
AcDbEntity
  8
0
100
AcDbText
 10
15.0
 20
31.5
 30
0.0
 40
2.5
  1
A3
  7
ROMANS
100
AcDbAttribute
  2
FORMAAT
 70
     9
  0
ATTRIB
  5
27E
100
AcDbEntity
  8
0
100
AcDbText
 10
15.0
 20
27.5
 30
0.0
 40
2.5
  1
hor
  7
ROMANS
100
AcDbAttribute
  2
POSITIE
 70
     9
  0
ATTRIB
  5
27F
100
AcDbEntity
  8
0
100
AcDbText
 10
15.0
 20
23.5
 30
0.0
 40
2.5
  1
1
  7
ROMANS
100
AcDbAttribute
  2
AANTAL
 70
     9
  0
ATTRIB
  5
280
100
AcDbEntity
  8
0
100
AcDbText
 10
15.0
 20
19.5
 30
0.0
 40
2.5
  1
1
  7
ROMANS
100
AcDbAttribute
  2
TEKSCHAAL
 70
     9
  0
ATTRIB
  5
281
100
AcDbEntity
  8
0
100
AcDbText
 10
15.0
 20
15.5
 30
0.0
 40
2.5
  1
1
  7
ROMANS
100
AcDbAttribute
  2
SNAPSCHAAL
 70
     9
  0
ATTRIB
  5
282
100
AcDbEntity
  8
0
100
AcDbText
 10
15.0
 20
11.5
 30
0.0
 40
2.5
  1
1
  7
ROMANS
100
AcDbAttribute
  2
BLADAANTAL
 70
     9
  0
SEQEND
  5
283
100
AcDbEntity
  8
0
  0
LINE
  5
1199
100
AcDbEntity
  8
VHH-025
100
AcDbLine
 10
14.138066
 20
511.7
 30
0.0
 11
230.644875
 21
511.7
 31
0.0
  0
LINE
  5
119A
100
AcDbEntity
  8
VHH-025
100
AcDbLine
 10
11.22181
 20
523.0
 30
0.0
 11
233.563843
 21
523.0
 31
0.0
  0
LINE
  5
119B
100
AcDbEntity
  8
VHH-025
100
AcDbLine
 10
11.195657
 20
522.0
 30
0.0
 11
233.589996
 21
522.0
 31
0.0
  0
LINE
  5
119C
100
AcDbEntity
  8
VHH-025
100
AcDbLine
 10
22.873115
 20
513.577798
 30
0.0
 11
220.004158
 21
513.577834
 31
0.0
  0
LWPOLYLINE
  5
119D
100
AcDbEntity
  8
VHH-025
100
AcDbPolyline
 90
        6
 70
     0
 43
0.0
 10
7.552635
 20
20.5
 10
6.390652
 20
20.5
 42
-0.414214
 10
5.390652
 20
21.5
 10
5.390652
 20
56.5
 42
-0.414214
 10
6.390652
 20
57.5
 10
237.390651
 20
57.5
  0
LINE
  5
119E
100
AcDbEntity
  8
VHH-025
100
AcDbLine
 10
1.580954
 20
0.0
 30
0.0
 11
237.389564
 21
0.0
 31
0.0
  0
LINE
  5
119F
100
AcDbEntity
  8
VHH-025
100
AcDbLine
 10
1.580954
 20
0.0
 30
0.0
 11
122.389564
 21
0.0
 31
0.0
  0
LINE
  5
11A0
100
AcDbEntity
  8
VHH-025
100
AcDbLine
 10
12.002857
 20
59.5
 30
0.0
 11
122.392826
 21
59.5
 31
0.0
  0
LINE
  5
11A1
100
AcDbEntity
  8
VHH-025
100
AcDbLine
 10
8.539386
 20
55.140004
 30
0.0
 11
122.389564
 21
55.140004
 31
0.0
  0
LWPOLYLINE
  5
11A2
100
AcDbEntity
  8
VHH-025
100
AcDbPolyline
 90
       33
 70
     0
 43
0.0
 10
80.941618
 20
435.626999
 10
80.923025
 20
435.670375
 10
80.564669
 20
436.44084
 10
79.370803
 20
438.827528
 10
77.863231
 20
441.793
 10
76.43403
 20
444.667862
 10
75.854068
 20
445.890737
 10
75.284869
 20
447.101025
 10
74.126619
 20
449.571671
 10
72.949004
 20
452.098176
 10
71.75739
 20
454.674128
 10
70.554537
 20
457.298802
 10
69.343584
 20
459.970897
 10
68.130722
 20
462.682606
 10
66.924971
 20
465.419711
 10
65.735262
 20
468.167774
 10
64.567642
 20
470.918646
 10
63.425249
 20
473.671118
 10
62.311024
 20
476.425052
 10
61.230507
 20
479.17449
 10
60.192069
 20
481.906238
 10
59.204486
 20
484.605217
 10
58.274295
 20
487.261493
 10
57.405456
 20
489.872399
 10
56.601447
 20
492.437856
 10
55.867592
 20
494.953445
 10
55.211384
 20
497.407726
 10
54.640699
 20
499.786155
 10
54.161913
 20
502.077675
 10
53.779786
 20
504.277734
 10
53.499005
 20
506.385149
 10
53.325514
 20
508.396083
 10
53.281896
 20
509.339362
  0
LWPOLYLINE
  5
11A3
100
AcDbEntity
  8
VHH-025
100
AcDbPolyline
 90
       12
 70
     0
 43
0.0
 10
69.748356
 20
435.63091
 10
69.125868
 20
436.663965
 10
67.102908
 20
439.790193
 10
64.746617
 20
443.466693
 10
63.214895
 20
446.052495
 10
59.190663
 20
453.806151
 10
55.456685
 20
462.181044
 10
49.160868
 20
479.715364
 10
46.83986
 20
487.98122
 10
45.061983
 20
495.830641
 10
43.89433
 20
503.024183
 10
43.403999
 20
509.322402
  0
LINE
  5
11A4
100
AcDbEntity
  8
VHH-025
100
AcDbLine
 10
98.870575
 20
387.500032
 30
0.0
 11
11.168848
 21
387.499983
 31
0.0
  0
LINE
  5
11A5
100
AcDbEntity
  8
VHH-025
100
AcDbLine
 10
12.229406
 20
386.5
 30
0.0
 11
98.837501
 21
386.5
 31
0.0
  0
LINE
  5
11A6
100
AcDbEntity
  8
VHH-025
100
AcDbLine
 10
14.984582
 20
397.499982
 30
0.0
 11
99.032142
 21
397.500035
 31
0.0
  0
LINE
  5
11A7
100
AcDbEntity
  8
VHH-025
100
AcDbLine
 10
99.109409
 20
395.674345
 30
0.0
 11
18.02845
 21
395.604646
 31
0.0
  0
LINE
  5
11A8
100
AcDbEntity
  8
VHH-025
100
AcDbLine
 10
100.659597
 20
401.500191
 30
0.0
 11
25.492826
 21
401.500089
 31
0.0
  0
LINE
  5
11A9
100
AcDbEntity
  8
VHH-025
100
AcDbLine
 10
40.342826
 20
398.4
 30
0.0
 11
96.8039
 21
398.4
 31
0.0
  0
LINE
  5
11AA
100
AcDbEntity
  8
VHH-025
100
AcDbLine
 10
43.142826
 20
401.2
 30
0.0
 11
97.561023
 21
401.2
 31
0.0
  0
LINE
  5
11AB
100
AcDbEntity
  8
VHH-025
100
AcDbLine
 10
35.257285
 20
510.9
 30
0.0
 11
209.528368
 21
510.9
 31
0.0
  0
LINE
  5
11AC
100
AcDbEntity
  8
VHH-025
100
AcDbLine
 10
35.257285
 20
510.3
 30
0.0
 11
209.528368
 21
510.3
 31
0.0
  0
SPLINE
  5
11AD
100
AcDbEntity
  8
VHH-025
100
AcDbSpline
210
0.0
220
0.0
230
-1.0
 70
     8
 71
     3
 72
    15
 73
    11
 74
     9
 42
0.0000001
 43
0.0000001
 44
0.0000000001
 40
0.0
 40
0.0
 40
0.0
 40
0.0
 40
8.727930916723018
 40
16.25763323255754
 40
20.36216076943259
 40
21.62307303412758
 40
23.69549543386533
 40
25.38624445710601
 40
45.72281463409045
 40
79.43205808847188
 40
79.43205808847188
 40
79.43205808847188
 40
79.43205808847188
 10
17.25590066246604
 20
585.5000001546819
 30
0.0
 10
17.95467921952808
 20
588.3165902787383
 30
0.0
 10
19.25630335013654
 20
593.5630902384958
 30
0.0
 10
21.18639030714042
 20
600.1571665177063
 30
0.0
 10
23.49280898512478
 20
603.7812058379032
 30
0.0
 10
25.03106280405627
 20
605.7824605104723
 30
0.0
 10
26.72081037730038
 20
606.3205618189407
 30
0.0
 10
34.65683309633884
 20
607.1052661239076
 30
0.0
 10
53.2177555859798
 20
609.0216375837566
 30
0.0
 10
71.18584189963673
 20
610.0672750766822
 30
0.0
 10
82.39282640518377
 20
610.7194560033026
 30
0.0
 11
17.25590066246604
 21
585.5000001546819
 31
0.0
 11
19.42123455124692
 21
593.9550641542732
 31
0.0
 11
21.92075664643107
 21
601.0577964637982
 31
0.0
 11
24.08919188655727
 21
604.5427691911441
 31
0.0
 11
24.92500615912558
 21
605.4868635937487
 31
0.0
 11
26.84115452061542
 21
606.2763634732259
 31
0.0
 11
28.5172631585001
 21
606.4983817013012
 31
0.0
 11
48.7602811601655
 21
608.446793553981
 31
0.0
 11
82.39282640518377
 21
610.7194560033026
 31
0.0
  0
ARC
  5
11AE
100
AcDbEntity
  8
VHH-025
100
AcDbCircle
 10
59.240646
 20
585.943273
 30
0.0
 40
0.5
100
AcDbArc
 50
359.745727
 51
92.817949
  0
LINE
  5
11AF
100
AcDbEntity
  8
VHH-025
100
AcDbLine
 10
44.284525
 20
587.734137
 30
0.0
 11
66.628294
 21
588.778119
 31
0.0
  0
LINE
  5
11B0
100
AcDbEntity
  8
VHH-025
100
AcDbLine
 10
56.238298
 20
511.7
 30
0.0
 11
62.197706
 21
511.7
 31
0.0
  0
ARC
  5
11B1
100
AcDbEntity
  8
VHH-025
100
AcDbCircle
 10
59.101692
 20
554.632858
 30
0.0
 40
0.5
100
AcDbArc
 50
273.09421
 51
359.745727
  0
LINE
  5
11B2
100
AcDbEntity
  8
VHH-025
100
AcDbLine
 10
66.604641
 20
552.753206
 30
0.0
 11
44.31485
 21
551.606981
 31
0.0
  0
LINE
  5
11B3
100
AcDbEntity
  8
VHH-025
100
AcDbLine
 10
25.492826
 20
511.7
 30
0.0
 11
25.492826
 21
397.499989
 31
0.0
  0
LINE
  5
11BA
100
AcDbEntity
  8
VHH-025
100
AcDbLine
 10
7.390652
 20
57.5
 30
0.0
 11
7.390652
 21
585.5
 31
0.0
  0
LINE
  5
11BE
100
AcDbEntity
  8
VHH-025
100
AcDbLine
 10
0.0
 20
1.0
 30
0.0
 11
1.722356
 21
39.559818
 31
0.0
  0
LINE
  5
11BF
100
AcDbEntity
  8
VHH-025
100
AcDbLine
 10
7.389564
 20
0.0
 30
0.0
 11
7.839074
 21
56.508727
 31
0.0
  0
LINE
  5
11C0
100
AcDbEntity
  8
VHH-025
100
AcDbLine
 10
8.108643
 20
0.0
 30
0.0
 11
8.539386
 21
55.140004
 31
0.0
  0
LINE
  5
11E7
100
AcDbEntity
  8
VHH-025
100
AcDbLine
 10
1.580954
 20
0.0
 30
0.0
 11
1.580954
 21
1.0
 31
0.0
  0
LINE
  5
11E8
100
AcDbEntity
  8
VHH-025
100
AcDbLine
 10
7.397519
 20
1.0
 30
0.0
 11
0.0
 21
1.0
 31
0.0
  0
INSERT
  5
11E9
100
AcDbEntity
  8
VHH-050
100
AcDbBlockReference
  2
A$C32063EEB
 10
-8.838839
 20
-8.838837
 30
0.0
  0
LINE
  5
120F
100
AcDbEntity
  8
VHH-025
100
AcDbLine
 10
22.262734
 20
384.176077
 30
0.0
 11
22.050917
 21
59.5
 31
0.0
  0
LINE
  5
1210
100
AcDbEntity
  8
VHH-025
100
AcDbLine
 10
16.321958
 20
367.881387
 30
0.0
 11
16.292826
 21
86.779748
 31
0.0
  0
SPLINE
  5
1250
100
AcDbEntity
  8
VHH-025
100
AcDbSpline
210
0.0
220
0.0
230
1.0
 70
     8
 71
     3
 72
    14
 73
    10
 74
     8
 42
0.0000001
 43
0.0000001
 44
0.0000000001
 40
0.0
 40
0.0
 40
0.0
 40
0.0
 40
1.042699229939734
 40
2.810159271199797
 40
5.132104488893749
 40
8.54541216354157
 40
14.83806452703994
 40
23.23839865586939
 40
26.59484554393276
 40
26.59484554393276
 40
26.59484554393276
 40
26.59484554393276
 10
16.55153481880279
 20
86.4168177538154
 30
0.0
 10
16.69474667414397
 20
86.09989191448915
 30
0.0
 10
17.08071427772226
 20
85.24575098861841
 30
0.0
 10
17.53261555334908
 20
83.58386258705404
 30
0.0
 10
17.76614226547784
 20
81.08944430745276
 30
0.0
 10
18.03841714533908
 20
77.09051834881707
 30
0.0
 10
18.13686341878656
 20
71.05280090567001
 30
0.0
 10
18.1834528263806
 20
65.03749804162265
 30
0.0
 10
18.20342460709369
 20
61.11855248837159
 30
0.0
 10
18.20912635667355
 20
59.99973156385158
 30
0.0
 11
16.55153481880279
 21
86.4168177538154
 31
0.0
 11
16.9620992607297
 21
85.45835099740589
 31
0.0
 11
17.44030335388106
 21
83.75681174051397
 31
0.0
 11
17.72419310154964
 21
81.45228658223505
 31
0.0
 11
17.95259161785088
 21
78.04662902464634
 31
0.0
 11
18.11770700378747
 21
71.75614329799782
 31
0.0
 11
18.19117549989369
 21
63.35613044943284
 31
0.0
 11
18.20912635667355
 21
59.99973156385158
 31
0.0
  0
LINE
  5
1251
100
AcDbEntity
  8
VHH-025
100
AcDbLine
 10
13.937561
 20
81.931261
 30
0.0
 11
11.320442
 21
60.010978
 31
0.0
  0
SPLINE
  5
1252
100
AcDbEntity
  8
VHH-025
100
AcDbSpline
210
0.0
220
0.0
230
1.0
 70
     8
 71
     3
 72
     9
 73
     5
 74
     3
 42
0.0000001
 43
0.0000001
 44
0.0000000001
 40
0.0
 40
0.0
 40
0.0
 40
0.0
 40
0.3652855011141922
 40
1.009075545627355
 40
1.009075545627355
 40
1.009075545627355
 40
1.009075545627355
 10
11.32044196629703
 20
60.01097831338075
 30
0.0
 10
11.32119708853757
 20
59.8740367369616
 30
0.0
 10
11.3232830607006
 20
59.49574524846087
 30
0.0
 10
11.73816351233053
 20
59.49834277711413
 30
0.0
 10
12.00285717731913
 20
59.49999999999954
 30
0.0
 11
11.32044196629703
 21
60.01097831338075
 31
0.0
 11
11.37680161827756
 21
59.65006684646278
 31
0.0
 11
12.00285717731913
 21
59.49999999999954
 31
0.0
  0
LINE
  5
1253
100
AcDbEntity
  8
VHH-025
100
AcDbLine
 10
12.294521
 20
59.5
 30
0.0
 11
12.294521
 21
57.5
 31
0.0
  0
ARC
  5
1254
100
AcDbEntity
  8
VHH-025
100
AcDbCircle
 10
8.839036
 20
56.5
 30
0.0
 40
1.0
100
AcDbArc
 50
90.000004
 51
179.500001
  0
ARC
  5
1255
100
AcDbEntity
  8
VHH-025
100
AcDbCircle
 10
2.746228
 20
39.487588
 30
0.0
 40
1.026416
100
AcDbArc
 50
80.52442
 51
175.964714
  0
LINE
  5
1256
100
AcDbEntity
  8
VHH-025
100
AcDbLine
 10
3.066349
 20
40.5
 30
0.0
 11
5.390652
 21
40.5
 31
0.0
  0
SPLINE
  5
1257
100
AcDbEntity
  8
VHH-025
100
AcDbSpline
210
0.0
220
0.0
230
1.0
 70
     8
 71
     3
 72
    13
 73
     9
 74
     7
 42
0.0000001
 43
0.0000001
 44
0.0000000001
 40
0.0
 40
0.0
 40
0.0
 40
0.0
 40
1.069269359765536
 40
2.131729584630608
 40
3.197797541177999
 40
4.26217533894207
 40
4.899079804344114
 40
5.532914177888079
 40
5.532914177888079
 40
5.532914177888079
 40
5.532914177888079
 10
16.29282623468952
 20
86.77974786632011
 30
0.0
 10
16.27088173404643
 20
86.42241739781468
 30
0.0
 10
16.22713247590712
 20
85.71003195045653
 30
0.0
 10
15.87348972292699
 20
84.6940412408524
 30
0.0
 10
15.34047045582196
 20
83.75805533196116
 30
0.0
 10
14.67709009739456
 20
83.11816281432987
 30
0.0
 10
14.12691228361881
 20
82.54691720436198
 30
0.0
 10
14.00057628974304
 20
82.13614872162363
 30
0.0
 10
13.93756090603074
 20
81.93126068645188
 30
0.0
 11
16.29282623468952
 21
86.77974786632011
 31
0.0
 11
16.17868620561876
 21
85.71658794537825
 31
0.0
 11
15.84400508318958
 21
84.70821783688142
 31
0.0
 11
15.30136427197885
 21
83.79058946003942
 31
0.0
 11
14.57735203672837
 21
83.01039308759163
 31
0.0
 11
14.16966407984455
 21
82.52106923996008
 31
0.0
 11
13.93756090603074
 21
81.93126068645188
 31
0.0
  0
LINE
  5
128E
100
AcDbEntity
  8
VHH-025
100
AcDbLine
 10
11.168848
 20
387.499983
 30
0.0
 11
12.222495
 21
395.883767
 31
0.0
  0
LINE
  5
128F
100
AcDbEntity
  8
VHH-025
100
AcDbLine
 10
17.686035
 20
387.499986
 30
0.0
 11
18.02845
 21
395.604646
 31
0.0
  0
LINE
  5
1290
100
AcDbEntity
  8
VHH-025
100
AcDbLine
 10
22.141978
 20
387.499927
 30
0.0
 11
22.526313
 21
395.6046
 31
0.0
  0
SPLINE
  5
1291
100
AcDbEntity
  8
VHH-025
100
AcDbSpline
210
0.0
220
0.0
230
1.0
 70
     8
 71
     3
 72
     9
 73
     5
 74
     3
 42
0.0000001
 43
0.0000001
 44
0.0000000001
 40
0.0
 40
0.0
 40
0.0
 40
0.0
 40
0.9804242998629113
 40
1.248549817031178
 40
1.248549817031178
 40
1.248549817031178
 40
1.248549817031178
 10
12.22940648651547
 20
386.4999999999995
 30
0.0
 10
11.77413788027782
 20
386.512038884658
 30
0.0
 10
11.19436284298271
 20
386.5273701521915
 30
0.0
 10
11.29153407381243
 20
386.0809973494736
 30
0.0
 10
11.31240155235809
 20
385.9851389888813
 30
0.0
 11
12.22940648651547
 21
386.4999999999995
 31
0.0
 11
11.28101809906638
 21
386.2514214926554
 31
0.0
 11
11.31240155235809
 21
385.9851389888813
 31
0.0
  0
LINE
  5
1292
100
AcDbEntity
  8
VHH-025
100
AcDbLine
 10
13.390965
 20
387.499973
 30
0.0
 11
13.303336
 21
386.5
 31
0.0
  0
SPLINE
  5
1293
100
AcDbEntity
  8
VHH-025
100
AcDbSpline
210
0.0
220
0.0
230
1.0
 70
     8
 71
     3
 72
    14
 73
    10
 74
     8
 42
0.0000001
 43
0.0000001
 44
0.0000000001
 40
0.0
 40
0.0
 40
0.0
 40
0.0
 40
0.2762442808532405
 40
0.5524885617056455
 40
1.103680952616389
 40
2.766577242775856
 40
3.871679079315657
 40
4.976969695300173
 40
5.504499993161342
 40
5.504499993161342
 40
5.504499993161342
 40
5.504499993161342
 10
13.79931262733316
 20
372.6328991834266
 30
0.0
 10
13.84255316540575
 20
372.5517775726239
 30
0.0
 10
13.92903424155079
 20
372.3895343510187
 30
0.0
 10
14.07921661983897
 20
372.0493763341199
 30
0.0
 10
14.72326167747612
 20
371.4988278862001
 30
0.0
 10
15.46003586507031
 20
370.6692289969803
 30
0.0
 10
16.03662376631403
 20
369.4935171501903
 30
0.0
 10
16.19857810252595
 20
368.5903837407948
 30
0.0
 10
16.29183030280323
 20
368.0545153142652
 30
0.0
 10
16.32195813897396
 20
367.8813874297161
 30
0.0
 11
13.79931262733316
 21
372.6328991834266
 31
0.0
 11
13.92620881670791
 21
372.3875254688068
 31
0.0
 11
14.05310500608084
 21
372.1421517541871
 31
0.0
 11
14.43072676212705
 21
371.7406360494401
 31
0.0
 11
15.51081359467843
 21
370.4762640685835
 31
0.0
 11
15.9870303607031
 21
369.4790340746099
 31
0.0
 11
16.23122674645583
 21
368.401056583672
 31
0.0
 11
16.32195813897396
 21
367.8813874297161
 31
0.0
  0
SPLINE
  5
1294
100
AcDbEntity
  8
VHH-025
100
AcDbSpline
210
0.0
220
0.0
230
1.0
 70
     8
 71
     3
 72
    14
 73
    10
 74
     8
 42
0.0000001
 43
0.0000001
 44
0.0000000001
 40
0.0
 40
0.0
 40
0.0
 40
0.0
 40
3.191871827524154
 40
5.335857413240205
 40
8.376690508344537
 40
10.96293588672739
 40
13.24458335793557
 40
15.17453521347446
 40
16.06516229607356
 40
16.06516229607356
 40
16.06516229607356
 40
16.06516229607356
 10
17.815328926873
 20
386.0001236641569
 30
0.0
 10
17.81377009119727
 20
384.9361692513909
 30
0.0
 10
17.81116418301992
 20
383.157554899852
 30
0.0
 10
17.78976676904639
 20
380.3653456421144
 30
0.0
 10
17.7378151304253
 20
377.775567192619
 30
0.0
 10
17.64611892579454
 20
375.1402826607722
 30
0.0
 10
17.51413513087571
 20
372.8793974753944
 30
0.0
 10
17.36912190238681
 20
371.1808284724765
 30
0.0
 10
17.17463600145189
 20
370.2604699642569
 30
0.0
 10
17.11322505910447
 20
369.9698572102447
 30
0.0
 11
17.815328926873
 21
386.0001236641569
 31
0.0
 11
17.80670764891056
 21
382.8082634797333
 31
0.0
 11
17.78839539690761
 21
380.6643560999278
 31
0.0
 11
17.72670933545032
 21
377.6241487481006
 31
0.0
 11
17.63184066751364
 21
375.0396439419432
 31
0.0
 11
17.49617451799076
 21
372.762033378492
 31
0.0
 11
17.28605958927528
 21
370.8435532817934
 31
0.0
 11
17.11322505910447
 21
369.9698572102447
 31
0.0
  0
LINE
  5
1295
100
AcDbEntity
  8
VHH-025
100
AcDbLine
 10
11.312402
 20
385.985139
 30
0.0
 11
13.799313
 21
372.632899
 31
0.0
  0
SPLINE
  5
1296
100
AcDbEntity
  8
VHH-025
100
AcDbSpline
210
0.0
220
0.0
230
-1.0
 70
     8
 71
     3
 72
    11
 73
     7
 74
     5
 42
0.0000001
 43
0.0000001
 44
0.0000000001
 40
0.0
 40
0.0
 40
0.0
 40
0.0
 40
0.6345840196798191
 40
1.890391237942621
 40
2.537599161339098
 40
3.470784413748566
 40
3.470784413748566
 40
3.470784413748566
 40
3.470784413748566
 10
12.22249522497168
 20
395.883766753273
 30
0.0
 10
12.25956207603015
 20
396.0954931145656
 30
0.0
 10
12.369982206834
 20
396.7262144151604
 30
0.0
 10
13.14245901183631
 20
397.310238163978
 30
0.0
 10
14.07258258044978
 20
397.4662294213538
 30
0.0
 10
14.60008648362876
 20
397.4874513729673
 30
0.0
 10
14.91156521599168
 20
397.4999824396513
 30
0.0
 11
12.22249522497168
 21
395.883766753273
 31
0.0
 11
12.38609970080233
 21
396.49689843042
 31
0.0
 11
13.34722762558612
 21
397.3051588350185
 31
0.0
 11
13.98034320551687
 21
397.439482170877
 31
0.0
 11
14.91156521599168
 21
397.4999824396513
 31
0.0
  0
SPLINE
  5
1297
100
AcDbEntity
  8
VHH-025
100
AcDbSpline
210
0.0
220
0.0
230
1.0
 70
     8
 71
     3
 72
    15
 73
    11
 74
     9
 42
0.0000001
 43
0.0000001
 44
0.0000000001
 40
0.0
 40
0.0
 40
0.0
 40
0.0
 40
0.4359904243240473
 40
0.794812201045396
 40
1.153633987719484
 40
1.512391879191823
 40
2.67098811864145
 40
3.240700171742211
 40
3.620272909985837
 40
4.18992292674796
 40
4.18992292674796
 40
4.18992292674796
 40
4.18992292674796
 10
25.49282628775745
 20
401.5000890768938
 30
0.0
 10
25.63954864992785
 20
401.4818414903484
 30
0.0
 10
25.90702407395817
 20
401.4485760707045
 30
0.0
 10
26.22598377173634
 20
401.2124678438876
 30
0.0
 10
26.43609314586111
 20
400.9110393409225
 30
0.0
 10
26.55115675245741
 20
400.2860140369442
 30
0.0
 10
26.50066436604588
 20
399.5892982105161
 30
0.0
 10
26.63714979315469
 20
398.8929363795012
 30
0.0
 10
26.84909727100876
 20
398.4277974718386
 30
0.0
 10
27.0575769753333
 20
398.18731990874
 30
0.0
 10
27.18269035513458
 20
398.0430038911058
 30
0.0
 11
25.49282628775745
 21
401.5000890768938
 31
0.0
 11
25.91863322531844
 21
401.4064082249165
 31
0.0
 11
26.21140009149621
 21
401.1989458680468
 31
0.0
 11
26.41208622511021
 21
400.9014930980697
 31
0.0
 11
26.49484937698526
 21
400.5524121828289
 31
0.0
 11
26.55549792978945
 21
399.3954044045017
 31
0.0
 11
26.67503184522775
 21
398.838373465946
 31
0.0
 11
26.83473151312773
 21
398.4940313690563
 31
0.0
 11
27.18269035513458
 21
398.0430038911058
 31
0.0
  0
SPLINE
  5
1298
100
AcDbEntity
  8
VHH-025
100
AcDbSpline
210
0.0
220
0.0
230
-1.0
 70
     8
 71
     3
 72
    10
 73
     6
 74
     4
 42
0.0000001
 43
0.0000001
 44
0.0000000001
 40
0.0
 40
0.0
 40
0.0
 40
0.0
 40
0.5656918030217481
 40
1.131091204875098
 40
1.98428193914176
 40
1.98428193914176
 40
1.98428193914176
 40
1.98428193914176
 10
22.897088617
 20
396.6648841375203
 30
0.0
 10
23.02306081580745
 20
396.8055392487323
 30
0.0
 10
23.27494009948944
 20
397.0867767677537
 30
0.0
 10
23.85314534637069
 20
397.4445914560389
 30
0.0
 10
24.33263368204647
 20
397.4791477389563
 30
0.0
 10
24.62101507902025
 20
397.4999311207416
 30
0.0
 11
22.897088617
 21
396.6648841375203
 31
0.0
 11
23.29444336509641
 21
397.0675209716168
 31
0.0
 11
23.77978869593698
 21
397.357549234804
 31
0.0
 11
24.62101507902025
 21
397.4999311207416
 31
0.0
  0
ARC
  5
1299
100
AcDbEntity
  8
VHH-025
100
AcDbCircle
 10
43.142826
 20
398.4
 30
0.0
 40
2.8
100
AcDbArc
 50
90.0
 51
180.0
  0
LINE
  5
129A
100
AcDbEntity
  8
VHH-025
100
AcDbLine
 10
40.342826
 20
398.4
 30
0.0
 11
40.342826
 21
397.500025
 31
0.0
  0
LWPOLYLINE
  5
12CF
100
AcDbEntity
  8
VHH-025
100
AcDbPolyline
 90
        3
 70
     0
 43
0.0
 10
17.255901
 20
585.5
 10
19.492342
 20
585.5
 10
17.20877
 20
541.885357
  0
LINE
  5
12D0
100
AcDbEntity
  8
VHH-025
100
AcDbLine
 10
58.97892
 20
584.813646
 30
0.0
 11
57.92507
 21
558.017127
 31
0.0
  0
LINE
  5
12D1
100
AcDbEntity
  8
VHH-025
100
AcDbLine
 10
42.636427
 20
553.141991
 30
0.0
 11
42.60337
 21
586.038518
 31
0.0
  0
LINE
  5
12D2
100
AcDbEntity
  8
VHH-025
100
AcDbLine
 10
43.964393
 20
557.454525
 30
0.0
 11
45.019996
 21
583.920205
 31
0.0
  0
LINE
  5
12D3
100
AcDbEntity
  8
VHH-025
100
AcDbLine
 10
44.530324
 20
571.643345
 30
0.0
 11
44.573198
 21
585.247496
 31
0.0
  0
LINE
  5
12D4
100
AcDbEntity
  8
VHH-025
100
AcDbLine
 10
24.377869
 20
604.207869
 30
0.0
 11
22.098347
 21
523.0
 31
0.0
  0
LINE
  5
12D5
100
AcDbEntity
  8
VHH-025
100
AcDbLine
 10
26.707275
 20
511.7
 30
0.0
 11
50.291228
 21
511.7
 31
0.0
  0
LINE
  5
12D6
100
AcDbEntity
  8
VHH-025
100
AcDbLine
 10
40.492826
 20
508.1
 30
0.0
 11
31.492826
 21
508.1
 31
0.0
  0
LINE
  5
12D7
100
AcDbEntity
  8
VHH-025
100
AcDbLine
 10
40.492826
 20
508.7
 30
0.0
 11
31.741354
 21
508.7
 31
0.0
  0
LINE
  5
12D8
100
AcDbEntity
  8
VHH-025
100
AcDbLine
 10
30.741354
 20
509.7
 30
0.0
 11
40.492826
 21
509.7
 31
0.0
  0
LINE
  5
12D9
100
AcDbEntity
  8
VHH-025
100
AcDbLine
 10
30.492826
 20
509.1
 30
0.0
 11
27.092826
 21
509.1
 31
0.0
  0
LINE
  5
12DA
100
AcDbEntity
  8
VHH-025
100
AcDbLine
 10
27.092826
 20
509.7
 30
0.0
 11
30.741354
 21
509.7
 31
0.0
  0
SPLINE
  5
12DB
100
AcDbEntity
  8
VHH-025
100
AcDbSpline
210
0.0
220
0.0
230
-1.0
 70
     8
 71
     3
 72
    17
 73
    13
 74
    11
 42
0.0000001
 43
0.0000001
 44
0.0000000001
 40
0.0
 40
0.0
 40
0.0
 40
0.0
 40
0.5545798661044809
 40
1.65356217845103
 40
2.750923934510153
 40
3.848571212510978
 40
4.674193321129976
 40
5.488636099266747
 40
8.524172564827331
 40
12.84394436806115
 40
16.51294489443665
 40
20.18194542081152
 40
20.18194542081152
 40
20.18194542081152
 40
20.18194542081152
 10
17.20876980518096
 20
541.8853574984491
 30
0.0
 10
17.18085999974626
 20
541.7026698175606
 30
0.0
 10
17.09764277262456
 20
541.1579593835015
 30
0.0
 10
16.86331143921419
 20
540.264623735307
 30
0.0
 10
16.33197633941992
 20
539.2910481188895
 30
0.0
 10
15.66296284893248
 20
538.5299702545462
 30
0.0
 10
14.94545764559284
 20
537.9564970038731
 30
0.0
 10
14.07223185522732
 20
536.6443091403938
 30
0.0
 10
13.2577774944371
 20
534.0215989233549
 30
0.0
 10
12.20542450138628
 20
530.4990277768233
 30
0.0
 10
11.77567229798214
 20
526.6252619162178
 30
0.0
 10
11.40643059656366
 20
524.2084207388912
 30
0.0
 10
11.22180974585444
 20
523.000000150228
 30
0.0
 11
17.20876980518096
 21
541.8853574984491
 31
0.0
 11
17.11855711398948
 21
541.338164206973
 31
0.0
 11
16.82131440621833
 21
540.2801429900177
 31
0.0
 11
16.29900871058725
 21
539.3150525362402
 31
0.0
 11
15.57728009890434
 21
538.4880474830629
 31
0.0
 11
14.97383253238604
 21
537.9245735256313
 31
0.0
 11
14.50204981065235
 21
537.2606924351243
 31
0.0
 11
13.39110893293127
 21
534.4357513738
 31
0.0
 11
12.28016805521019
 21
530.2612767004761
 31
0.0
 11
11.75098890053323
 21
526.6306384253517
 31
0.0
 11
11.22180974585444
 21
523.000000150228
 31
0.0
  0
SPLINE
  5
12DC
100
AcDbEntity
  8
VHH-025
100
AcDbSpline
210
0.0
220
0.0
230
1.0
 70
     8
 71
     3
 72
    13
 73
     9
 74
     7
 42
0.0000001
 43
0.0000001
 44
0.0000000001
 40
0.0
 40
0.0
 40
0.0
 40
0.0
 40
5.157331242127678
 40
11.03348381863841
 40
14.6191666271849
 40
16.78242660352459
 40
17.89174384221371
 40
18.52503597702162
 40
18.52503597702162
 40
18.52503597702162
 40
18.52503597702162
 10
17.85320735389996
 20
523.0000001114835
 30
0.0
 10
17.94222313459565
 20
524.7169780778854
 30
0.0
 10
18.13266158615111
 20
528.3902439046967
 30
0.0
 10
18.26144551568791
 20
533.2602549082187
 30
0.0
 10
18.28256830301793
 20
537.1399900125465
 30
0.0
 10
18.03705301970572
 20
539.4167616270006
 30
0.0
 10
17.75895604909548
 20
540.6932364663013
 30
0.0
 10
17.55513915742686
 20
541.2376587941419
 30
0.0
 10
17.48106883713717
 20
541.4355105809386
 30
0.0
 11
17.85320735389996
 21
523.0000001114835
 31
0.0
 11
18.09988263614741
 21
528.1514287333471
 31
0.0
 11
18.25610594289446
 21
534.0255042674939
 31
0.0
 11
18.20102837279682
 21
537.6107640439645
 31
0.0
 11
17.94870062934842
 21
539.7592575708618
 31
0.0
 11
17.69274797655361
 21
540.8386430328632
 31
0.0
 11
17.48106883713717
 21
541.4355105809386
 31
0.0
  0
SPLINE
  5
12DD
100
AcDbEntity
  8
VHH-025
100
AcDbSpline
210
0.0
220
0.0
230
1.0
 70
     8
 71
     3
 72
    11
 73
     7
 74
     5
 42
0.0000001
 43
0.0000001
 44
0.0000000001
 40
0.0
 40
0.0
 40
0.0
 40
0.0
 40
0.650158583643722
 40
1.328696847749662
 40
2.007498148688771
 40
2.665365116564809
 40
2.665365116564809
 40
2.665365116564809
 40
2.665365116564809
 10
12.27375600975847
 20
513.2798863506819
 30
0.0
 10
12.31224537269479
 20
513.0617176408106
 30
0.0
 10
12.39090417455013
 20
512.6158570702109
 30
0.0
 10
12.88130849090622
 20
512.1199186768701
 30
0.0
 10
13.46905217269732
 20
511.7706116462878
 30
0.0
 10
13.91740233829017
 20
511.7232902761222
 30
0.0
 10
14.13806648575791
 20
511.7000001546816
 30
0.0
 11
12.27375600975847
 21
513.2798863506819
 31
0.0
 11
12.44810671320283
 21
512.6535413849528
 31
0.0
 11
12.89731162219959
 21
512.1449854631614
 31
0.0
 11
13.49024576409738
 21
511.8145307619865
 31
0.0
 11
14.13806648575791
 21
511.7000001546816
 31
0.0
  0
SPLINE
  5
12DE
100
AcDbEntity
  8
VHH-025
100
AcDbSpline
210
0.0
220
0.0
230
1.0
 70
     8
 71
     3
 72
    12
 73
     8
 74
     6
 42
0.0000001
 43
0.0000001
 44
0.0000000001
 40
0.0
 40
0.0
 40
0.0
 40
0.0
 40
0.5662025144873023
 40
1.132136061659382
 40
1.697787119143932
 40
2.263116602111067
 40
2.828292171028441
 40
2.828292171028441
 40
2.828292171028441
 40
2.828292171028441
 10
18.23929637155288
 20
513.4078597155207
 30
0.0
 10
18.27783060782669
 20
513.220990630652
 30
0.0
 10
18.35488077517465
 20
512.8473412307005
 30
0.0
 10
18.69378930419482
 20
512.3795073738366
 30
0.0
 10
19.10901756679782
 20
511.9881665273053
 30
0.0
 10
19.64146801357665
 20
511.7617161549866
 30
0.0
 10
20.01703168550205
 20
511.7205702874978
 30
0.0
 10
20.20478795566759
 20
511.7000001546816
 30
0.0
 11
18.23929637155288
 21
513.4078597155207
 31
0.0
 11
18.39215286075796
 21
512.8626806796805
 31
0.0
 11
18.70660454025801
 21
512.3921480866815
 31
0.0
 11
19.12867895975887
 21
512.0155656876818
 31
0.0
 11
19.64668776525923
 21
511.7891494741811
 31
0.0
 11
20.20478795566759
 21
511.7000001546816
 31
0.0
  0
LINE
  5
12DF
100
AcDbEntity
  8
VHH-025
100
AcDbLine
 10
11.195657
 20
522.0
 30
0.0
 11
12.273756
 21
513.279886
 31
0.0
  0
LINE
  5
12E0
100
AcDbEntity
  8
VHH-025
100
AcDbLine
 10
13.33688
 20
523.0
 30
0.0
 11
13.196105
 21
522.0
 31
0.0
  0
LINE
  5
12E1
100
AcDbEntity
  8
VHH-025
100
AcDbLine
 10
17.826927
 20
522.0
 30
0.0
 11
18.239296
 21
513.40786
 31
0.0
  0
ARC
  5
12E2
100
AcDbEntity
  8
VHH-025
100
AcDbCircle
 10
27.092826
 20
510.7
 30
0.0
 40
1.0
100
AcDbArc
 50
90.0
 51
270.0
  0
ARC
  5
12E3
100
AcDbEntity
  8
VHH-025
100
AcDbCircle
 10
27.092826
 20
510.7
 30
0.0
 40
1.6
100
AcDbArc
 50
141.317813
 51
270.0
  0
LINE
  5
12E4
100
AcDbEntity
  8
VHH-025
100
AcDbLine
 10
35.257285
 20
510.3
 30
0.0
 11
35.257285
 21
510.9
 31
0.0
  0
LINE
  5
12E5
100
AcDbEntity
  8
VHH-025
100
AcDbLine
 10
31.741354
 20
508.7
 30
0.0
 11
30.741354
 21
509.7
 31
0.0
  0
LINE
  5
12E6
100
AcDbEntity
  8
VHH-025
100
AcDbLine
 10
31.492826
 20
508.1
 30
0.0
 11
30.492826
 21
509.1
 31
0.0
  0
SPLINE
  5
12E7
100
AcDbEntity
  8
VHH-025
100
AcDbSpline
210
0.0
220
0.0
230
1.0
 70
     8
 71
     3
 72
    12
 73
     8
 74
     6
 42
0.0000001
 43
0.0000001
 44
0.0000000001
 40
0.0
 40
0.0
 40
0.0
 40
0.0
 40
0.430102224716345
 40
0.8434719887057884
 40
1.254524939527736
 40
1.659116521510955
 40
1.863361491889594
 40
1.863361491889594
 40
1.863361491889594
 40
1.863361491889594
 10
56.6437805096275
 20
556.9033544413373
 30
0.0
 10
56.786302378366
 20
556.9217674132371
 30
0.0
 10
57.06580152333834
 20
556.9578770288906
 30
0.0
 10
57.45824668875744
 20
557.1250705673634
 30
0.0
 10
57.75414393713547
 20
557.4260807858592
 30
0.0
 10
57.87828400993417
 20
557.7503294104996
 30
0.0
 10
57.91331759967659
 20
557.9501079148752
 30
0.0
 10
57.92507023586677
 20
558.0171271412178
 30
0.0
 11
56.6437805096275
 21
556.9033544413373
 31
0.0
 11
57.06727916237014
 21
556.9784331655614
 31
0.0
 11
57.44403506400613
 21
557.1485200620677
 31
0.0
 11
57.7310397509691
 21
557.4427866725431
 31
0.0
 11
57.88541505556441
 21
557.8167687757818
 31
0.0
 11
57.92507023586677
 21
558.0171271412178
 31
0.0
  0
ELLIPSE
  5
12E8
100
AcDbEntity
  8
VHH-025
100
AcDbEllipse
 10
50.878282
 20
563.452897
 30
0.0
 11
-0.5847090253523675
 21
-3.845560362166452
 31
0.0
210
0.0
220
0.0
230
1.0
 40
0.934504
 41
0.0
 42
6.283185307179586
  0
LWPOLYLINE
  5
12E9
100
AcDbEntity
  8
VHH-025
100
AcDbPolyline
 90
        6
 70
     0
 43
0.0
 10
43.403999
 20
509.322402
 10
43.320643
 20
509.70028
 10
43.100066
 20
510.01822
 10
42.775298
 20
510.228614
 10
42.405798
 20
510.299999
 10
42.40425
 20
510.3
  0
SPLINE
  5
12EA
100
AcDbEntity
  8
VHH-025
100
AcDbSpline
210
0.0
220
0.0
230
-1.0
 70
     8
 71
     3
 72
    14
 73
    10
 74
     8
 42
0.0000001
 43
0.0000001
 44
0.0000000001
 40
0.0
 40
0.0
 40
0.0
 40
0.0
 40
0.2461636398491298
 40
0.4473543715030857
 40
0.8348519280356871
 40
1.027990166881787
 40
1.250840234266887
 40
1.448371555080319
 40
1.70278378988016
 40
1.70278378988016
 40
1.70278378988016
 40
1.70278378988016
 10
43.96439260813986
 20
557.4545248284589
 30
0.0
 10
43.96421650214025
 20
557.3722304303867
 30
0.0
 10
43.96389646385671
 20
557.2226764233432
 30
0.0
 10
44.02529031169314
 20
556.949151167383
 30
0.0
 10
44.12852057566195
 20
556.7103981620148
 30
0.0
 10
44.26327279640233
 20
556.4727114014267
 30
0.0
 10
44.44296686085331
 20
556.3639873895169
 30
0.0
 10
44.64874266240914
 20
556.2698163598672
 30
0.0
 10
44.80070198889779
 20
556.2596876389541
 30
0.0
 10
44.88624433455242
 20
556.2539858859558
 30
0.0
 11
43.96439260813986
 21
557.4545248284589
 31
0.0
 11
43.97392239204691
 21
557.2085457220241
 31
0.0
 11
44.01561188816503
 21
557.0117216980411
 31
0.0
 11
44.16340820797723
 21
556.6535170021357
 31
0.0
 11
44.26951503167129
 21
556.4921363302132
 31
0.0
 11
44.45180670242644
 21
556.3639493600999
 31
0.0
 11
44.63409837317977
 21
556.2878680254884
 31
0.0
 11
44.88624433455242
 21
556.2539858859558
 31
0.0
  0
SPLINE
  5
12EB
100
AcDbEntity
  8
VHH-025
100
AcDbSpline
210
0.0
220
0.0
230
1.0
 70
     8
 71
     3
 72
    12
 73
     8
 74
     6
 42
0.0000001
 43
0.0000001
 44
0.0000000001
 40
0.0
 40
0.0
 40
0.0
 40
0.0
 40
0.6333227639766334
 40
1.258591262608845
 40
1.575282577616958
 40
2.212493335718306
 40
2.538190609334586
 40
2.538190609334586
 40
2.538190609334586
 40
2.538190609334586
 10
42.63642729391995
 20
553.1419913231107
 30
0.0
 10
42.66227530032828
 20
552.9295174019096
 30
0.0
 10
42.71364259181344
 20
552.5072716909281
 30
0.0
 10
43.04327432203068
 20
552.0669763418799
 30
0.0
 10
43.46663412518611
 20
551.7539308137648
 30
0.0
 10
43.88452151199781
 20
551.6053710274948
 30
0.0
 10
44.20608382750184
 20
551.6065737614103
 30
0.0
 10
44.31485015409544
 20
551.6069805782031
 30
0.0
 11
42.63642729391995
 21
553.1419913231107
 31
0.0
 11
42.76765081201211
 21
552.522412343746
 31
0.0
 11
43.13226538727668
 21
552.0144586973506
 31
0.0
 11
43.38685538104527
 21
551.8261044458072
 31
0.0
 11
43.98936335480266
 21
551.618687735297
 31
0.0
 11
44.31485015409544
 21
551.6069805782031
 31
0.0
  0
LINE
  5
12EC
100
AcDbEntity
  8
VHH-025
100
AcDbLine
 10
53.263193
 20
511.7
 30
0.0
 11
56.238298
 21
511.7
 31
0.0
  0
LINE
  5
12ED
100
AcDbEntity
  8
VHH-025
100
AcDbLine
 10
50.291228
 20
511.7
 30
0.0
 11
53.263193
 21
511.7
 31
0.0
  0
LINE
  5
12EE
100
AcDbEntity
  8
VHH-025
100
AcDbLine
 10
57.984907
 20
556.492136
 30
0.0
 11
59.21569
 21
554.13829
 31
0.0
  0
LINE
  5
12EF
100
AcDbEntity
  8
VHH-025
100
AcDbLine
 10
40.492826
 20
509.7
 30
0.0
 11
40.492826
 21
508.7
 31
0.0
  0
LINE
  5
12F0
100
AcDbEntity
  8
VHH-025
100
AcDbLine
 10
40.492826
 20
508.7
 30
0.0
 11
40.492826
 21
508.1
 31
0.0
  0
LINE
  5
12F1
100
AcDbEntity
  8
VHH-025
100
AcDbLine
 10
44.474314
 20
553.870754
 30
0.0
 11
44.481199
 21
556.055703
 31
0.0
  0
LINE
  5
12F2
100
AcDbEntity
  8
VHH-025
100
AcDbLine
 10
59.128681
 20
554.133586
 30
0.0
 11
45.0013
 21
553.369907
 31
0.0
  0
LINE
  5
12F3
100
AcDbEntity
  8
VHH-025
100
AcDbLine
 10
44.171455
 20
556.638215
 30
0.0
 11
45.88397
 21
553.417621
 31
0.0
  0
LINE
  5
12F4
100
AcDbEntity
  8
VHH-025
100
AcDbLine
 10
56.643781
 20
556.903354
 30
0.0
 11
44.886244
 21
556.253986
 31
0.0
  0
LINE
  5
12F5
100
AcDbEntity
  8
VHH-025
100
AcDbLine
 10
7.390652
 20
585.5
 30
0.0
 11
17.255901
 21
585.5
 31
0.0
  0
SPLINE
  5
12F6
100
AcDbEntity
  8
VHH-025
100
AcDbSpline
210
0.0
220
0.0
230
-1.0
 70
     8
 71
     3
 72
    11
 73
     7
 74
     5
 42
0.0000001
 43
0.0000001
 44
0.0000000001
 40
0.0
 40
0.0
 40
0.0
 40
0.0
 40
0.3788822097076336
 40
0.7856242620079092
 40
1.206550869508587
 40
1.477512281568232
 40
1.477512281568232
 40
1.477512281568232
 40
1.477512281568232
 10
58.11984608354669
 20
585.7537630751844
 30
0.0
 10
58.2479783266381
 20
585.7545274824935
 30
0.0
 10
58.51366459096754
 20
585.7561125052593
 30
0.0
 10
58.87389914273997
 20
585.504952859743
 30
0.0
 10
58.97556374946734
 20
585.133530668
 30
0.0
 10
58.97797520128893
 20
584.903666846355
 30
0.0
 10
58.97891958877972
 20
584.8136461725848
 30
0.0
 11
58.11984608354669
 21
585.7537630751844
 31
0.0
 11
58.49700344472785
 21
585.7176513909284
 31
0.0
 11
58.82848208833912
 21
585.481937568807
 31
0.0
 11
58.96663659196656
 21
585.0843290401894
 31
0.0
 11
58.97891958877972
 21
584.8136461725848
 31
0.0
  0
SPLINE
  5
12F7
100
AcDbEntity
  8
VHH-025
100
AcDbSpline
210
0.0
220
0.0
230
-1.0
 70
     8
 71
     3
 72
    11
 73
     7
 74
     5
 42
0.0000001
 43
0.0000001
 44
0.0000000001
 40
0.0
 40
0.0
 40
0.0
 40
0.0
 40
0.7911843907099164
 40
1.600893155508356
 40
2.251444458122481
 40
2.582196256356861
 40
2.582196256356861
 40
2.582196256356861
 40
2.582196256356861
 10
42.60336968757201
 20
586.0385176264103
 30
0.0
 10
42.6468301666414
 20
586.3045943193701
 30
0.0
 10
42.73476868551798
 20
586.8429774846614
 30
0.0
 10
43.30547015071489
 20
587.3992969230023
 30
0.0
 10
43.85720355503614
 20
587.6387947754944
 30
0.0
 10
44.17680295183834
 20
587.7101023783361
 30
0.0
 10
44.28452509713224
 20
587.734136866607
 30
0.0
 11
42.60336968757201
 21
586.0385176264103
 31
0.0
 11
42.81138765992818
 21
586.8018663431053
 31
0.0
 11
43.37031662248683
 21
587.3877218701805
 31
0.0
 11
43.96332429110134
 21
587.6552268276996
 31
0.0
 11
44.28452509713224
 21
587.734136866607
 31
0.0
  0
SPLINE
  5
12F8
100
AcDbEntity
  8
VHH-025
100
AcDbSpline
210
0.0
220
0.0
230
-1.0
 70
     8
 71
     3
 72
    12
 73
     8
 74
     6
 42
0.0000001
 43
0.0000001
 44
0.0000000001
 40
0.0
 40
0.0
 40
0.0
 40
0.0
 40
0.460609787038649
 40
0.8428341308476516
 40
1.231136252854545
 40
1.532631450480557
 40
1.823032378360215
 40
1.823032378360215
 40
1.823032378360215
 40
1.823032378360215
 10
45.01999602232626
 20
583.9202051532479
 30
0.0
 10
45.0304200793638
 20
584.0740984375368
 30
0.0
 10
45.04949425299268
 20
584.3556958246457
 30
0.0
 10
45.21384921392227
 20
584.7431231334701
 30
0.0
 10
45.48914788065926
 20
584.990975475348
 30
0.0
 10
45.80163879084891
 20
585.1016695026361
 30
0.0
 10
45.99789055990563
 20
585.124372972141
 30
0.0
 10
46.09417721118825
 20
585.1355119344121
 30
0.0
 11
45.01999602232626
 21
583.9202051532479
 31
0.0
 11
45.07917620309763
 21
584.376997318373
 31
0.0
 11
45.23641698603114
 21
584.7253804195457
 31
0.0
 11
45.52499249252014
 21
584.985193265667
 31
0.0
 11
45.80713539622684
 21
585.0914699615109
 31
0.0
 11
46.09417721118825
 21
585.1355119344121
 31
0.0
  0
LINE
  5
12F9
100
AcDbEntity
  8
VHH-025
100
AcDbLine
 10
46.094177
 20
585.135512
 30
0.0
 11
58.119846
 21
585.753763
 31
0.0
  0
ARC
  5
12FA
100
AcDbEntity
  8
VHH-025
100
AcDbCircle
 10
45.073196
 20
585.24592
 30
0.0
 40
0.5
100
AcDbArc
 50
92.817949
 51
179.819431
  0
LINE
  5
12FB
100
AcDbEntity
  8
VHH-025
100
AcDbLine
 10
45.048614
 20
585.745316
 30
0.0
 11
59.216064
 21
586.442668
 31
0.0
  0
LINE
  5
1338
100
AcDbEntity
  8
VHH-025
100
AcDbLine
 10
449.290114
 20
397.499989
 30
0.0
 11
449.290114
 21
511.7
 31
0.0
  0
LWPOLYLINE
  5
1339
100
AcDbEntity
  8
VHH-025
100
AcDbPolyline
 90
       12
 70
     0
 43
0.0
 10
201.381655
 20
509.322402
 10
201.128895
 20
505.187842
 10
200.558265
 20
500.609171
 10
198.543837
 20
490.410015
 10
194.309009
 20
475.584507
 10
188.866179
 20
461.075906
 10
182.322175
 20
447.406734
 10
181.470295
 20
445.87462
 10
180.237283
 20
443.786616
 10
176.766283
 20
438.383961
 10
175.428358
 20
436.29298
 10
175.037316
 20
435.6309
  0
LWPOLYLINE
  5
133A
100
AcDbEntity
  8
VHH-025
100
AcDbPolyline
 90
       43
 70
     0
 43
0.0
 10
163.89151
 20
435.626999
 10
163.91013
 20
435.670381
 10
164.26896
 20
436.440859
 10
165.464352
 20
438.827589
 10
166.973724
 20
441.7931
 10
168.404391
 20
444.667975
 10
168.984791
 20
445.890852
 10
169.55427
 20
447.10115
 10
169.964309
 20
447.974219
 10
170.71265
 20
449.571815
 10
171.215672
 20
450.649216
 10
171.889859
 20
452.098335
 10
172.485725
 20
453.384564
 10
173.080581
 20
454.674297
 10
173.767898
 20
456.172301
 10
174.2821
 20
457.298977
 10
175.058617
 20
459.011051
 10
175.491317
 20
459.971076
 10
176.702081
 20
462.682786
 10
177.905425
 20
465.419888
 10
179.092468
 20
468.167946
 10
180.25721
 20
470.918811
 10
181.396554
 20
473.671275
 10
182.507594
 20
476.425198
 10
183.584833
 20
479.174624
 10
184.61995
 20
481.906359
 10
185.604226
 20
484.605325
 10
186.53117
 20
487.261587
 10
186.850564
 20
488.208298
 10
187.396861
 20
489.872479
 10
187.751736
 20
490.988517
 10
188.197858
 20
492.437923
 10
188.573123
 20
493.704505
 10
188.928878
 20
494.953498
 10
189.309959
 20
496.35529
 10
189.58248
 20
497.407767
 10
189.955406
 20
498.934908
 10
190.150839
 20
499.786185
 10
190.627627
 20
502.077695
 10
191.008124
 20
504.277746
 10
191.287684
 20
506.385155
 10
191.460406
 20
508.396084
 10
191.503825
 20
509.339293
  0
LWPOLYLINE
  5
133B
100
AcDbEntity
  8
VHH-025
100
AcDbPolyline
 90
       33
 70
     0
 43
0.0
 10
154.842491
 20
435.626999
 10
154.857012
 20
435.670375
 10
155.136941
 20
436.44084
 10
156.070047
 20
438.827528
 10
157.249647
 20
441.793
 10
158.370383
 20
444.667862
 10
158.826857
 20
445.890737
 10
159.276559
 20
447.101025
 10
160.19643
 20
449.571671
 10
161.137502
 20
452.098176
 10
162.094979
 20
454.674128
 10
163.066194
 20
457.298802
 10
164.048218
 20
459.970897
 10
165.035665
 20
462.682606
 10
166.020827
 20
465.419711
 10
166.996033
 20
468.167774
 10
167.955958
 20
470.918646
 10
168.897682
 20
473.671118
 10
169.818473
 20
476.425052
 10
170.713466
 20
479.17449
 10
171.575444
 20
481.906238
 10
172.396836
 20
484.605217
 10
173.171919
 20
487.261493
 10
173.897123
 20
489.872399
 10
174.569293
 20
492.437856
 10
175.183739
 20
494.953445
 10
175.733954
 20
497.407726
 10
176.213098
 20
499.786155
 10
176.615591
 20
502.077675
 10
176.937206
 20
504.277734
 10
177.173788
 20
506.385149
 10
177.320121
 20
508.396083
 10
177.35694
 20
509.339362
  0
LWPOLYLINE
  5
133C
100
AcDbEntity
  8
VHH-025
100
AcDbPolyline
 90
        4
 70
     1
 43
0.0
 10
113.392826
 20
508.454426
 10
131.392826
 20
508.454426
 10
131.392826
 20
443.898158
 10
113.392826
 20
443.898158
  0
LWPOLYLINE
  5
133D
100
AcDbEntity
  8
VHH-025
100
AcDbPolyline
 90
       43
 70
     0
 43
0.0
 10
90.003897
 20
435.626999
 10
89.989405
 20
435.670381
 10
89.710067
 20
436.440859
 10
88.77887
 20
438.827589
 10
87.601534
 20
441.7931
 10
86.482665
 20
444.667975
 10
86.026752
 20
445.890852
 10
85.577397
 20
447.10115
 10
85.252671
 20
447.974219
 10
84.657671
 20
449.571815
 10
84.256121
 20
450.649216
 10
83.716065
 20
452.098335
 10
83.237077
 20
453.384564
 10
82.757436
 20
454.674297
 10
82.201529
 20
456.172301
 10
81.784506
 20
457.298977
 10
81.153009
 20
459.011051
 10
80.800257
 20
459.971076
 10
79.810126
 20
462.682786
 10
78.821886
 20
465.419888
 10
77.843274
 20
468.167946
 10
76.879675
 20
470.918811
 10
75.934059
 20
473.671275
 10
75.009203
 20
476.425198
 10
74.110028
 20
479.174624
 10
73.243816
 20
481.906359
 10
72.418206
 20
484.605325
 10
71.638983
 20
487.261587
 10
71.370108
 20
488.208298
 10
70.909766
 20
489.872479
 10
70.61042
 20
490.988517
 10
70.233757
 20
492.437923
 10
69.916614
 20
493.704505
 10
69.615698
 20
494.953498
 10
69.293071
 20
496.35529
 10
69.062161
 20
497.407767
 10
68.745912
 20
498.934908
 10
68.580053
 20
499.786185
 10
68.175014
 20
502.077695
 10
67.851323
 20
504.277746
 10
67.613185
 20
506.385155
 10
67.465872
 20
508.396084
 10
67.428805
 20
509.339293
  0
LINE
  5
133E
100
AcDbEntity
  8
VHH-025
100
AcDbLine
 10
219.290115
 20
397.499989
 30
0.0
 11
219.290115
 21
511.7
 31
0.0
  0
LWPOLYLINE
  5
133F
100
AcDbEntity
  8
VHH-025
100
AcDbPolyline
 90
       33
 70
     0
 43
0.0
 10
310.941617
 20
435.626999
 10
310.923024
 20
435.670375
 10
310.564668
 20
436.44084
 10
309.370802
 20
438.827528
 10
307.86323
 20
441.793
 10
306.434029
 20
444.667862
 10
305.854067
 20
445.890737
 10
305.284868
 20
447.101025
 10
304.126618
 20
449.571671
 10
302.949003
 20
452.098176
 10
301.757389
 20
454.674128
 10
300.554536
 20
457.298802
 10
299.343582
 20
459.970897
 10
298.130721
 20
462.682606
 10
296.92497
 20
465.419711
 10
295.735261
 20
468.167774
 10
294.567641
 20
470.918646
 10
293.425248
 20
473.671118
 10
292.311023
 20
476.425052
 10
291.230506
 20
479.17449
 10
290.192068
 20
481.906238
 10
289.204484
 20
484.605217
 10
288.274293
 20
487.261493
 10
287.405455
 20
489.872399
 10
286.601446
 20
492.437856
 10
285.867591
 20
494.953445
 10
285.211383
 20
497.407726
 10
284.640698
 20
499.786155
 10
284.161911
 20
502.077675
 10
283.779785
 20
504.277734
 10
283.499004
 20
506.385149
 10
283.325513
 20
508.396083
 10
283.281895
 20
509.339362
  0
LWPOLYLINE
  5
1340
100
AcDbEntity
  8
VHH-025
100
AcDbPolyline
 90
       12
 70
     0
 43
0.0
 10
299.748355
 20
435.63091
 10
299.125867
 20
436.663965
 10
297.102907
 20
439.790193
 10
294.746616
 20
443.466693
 10
293.214894
 20
446.052495
 10
289.190662
 20
453.806151
 10
285.456683
 20
462.181044
 10
279.160867
 20
479.715364
 10
276.839859
 20
487.98122
 10
275.061981
 20
495.830641
 10
273.894329
 20
503.024183
 10
273.403998
 20
509.322402
  0
LINE
  5
1341
100
AcDbEntity
  8
VHH-025
100
AcDbLine
 10
255.492825
 20
511.7
 30
0.0
 11
255.492825
 21
397.499989
 31
0.0
  0
LWPOLYLINE
  5
1342
100
AcDbEntity
  8
VHH-025
100
AcDbPolyline
 90
       43
 70
     0
 43
0.0
 10
320.003896
 20
435.626999
 10
319.989404
 20
435.670381
 10
319.710066
 20
436.440859
 10
318.778869
 20
438.827589
 10
317.601532
 20
441.7931
 10
316.482664
 20
444.667975
 10
316.02675
 20
445.890852
 10
315.577396
 20
447.10115
 10
315.25267
 20
447.974219
 10
314.65767
 20
449.571815
 10
314.25612
 20
450.649216
 10
313.716064
 20
452.098335
 10
313.237076
 20
453.384564
 10
312.757434
 20
454.674297
 10
312.201528
 20
456.172301
 10
311.784505
 20
457.298977
 10
311.153008
 20
459.011051
 10
310.800255
 20
459.971076
 10
309.810125
 20
462.682786
 10
308.821885
 20
465.419888
 10
307.843273
 20
468.167946
 10
306.879674
 20
470.918811
 10
305.934058
 20
473.671275
 10
305.009202
 20
476.425198
 10
304.110027
 20
479.174624
 10
303.243814
 20
481.906359
 10
302.418205
 20
484.605325
 10
301.638982
 20
487.261587
 10
301.370107
 20
488.208298
 10
300.909765
 20
489.872479
 10
300.610419
 20
490.988517
 10
300.233756
 20
492.437923
 10
299.916613
 20
493.704505
 10
299.615697
 20
494.953498
 10
299.29307
 20
496.35529
 10
299.06216
 20
497.407767
 10
298.745911
 20
498.934908
 10
298.580052
 20
499.786185
 10
298.175013
 20
502.077695
 10
297.851322
 20
504.277746
 10
297.613184
 20
506.385155
 10
297.465871
 20
508.396084
 10
297.428804
 20
509.339293
  0
LWPOLYLINE
  5
1343
100
AcDbEntity
  8
VHH-025
100
AcDbPolyline
 90
       33
 70
     0
 43
0.0
 10
384.84249
 20
435.626999
 10
384.857011
 20
435.670375
 10
385.13694
 20
436.44084
 10
386.070046
 20
438.827528
 10
387.249646
 20
441.793
 10
388.370382
 20
444.667862
 10
388.826856
 20
445.890737
 10
389.276558
 20
447.101025
 10
390.196429
 20
449.571671
 10
391.1375
 20
452.098176
 10
392.094978
 20
454.674128
 10
393.066193
 20
457.298802
 10
394.048217
 20
459.970897
 10
395.035664
 20
462.682606
 10
396.020826
 20
465.419711
 10
396.996032
 20
468.167774
 10
397.955957
 20
470.918646
 10
398.897681
 20
473.671118
 10
399.818472
 20
476.425052
 10
400.713465
 20
479.17449
 10
401.575443
 20
481.906238
 10
402.396835
 20
484.605217
 10
403.171918
 20
487.261493
 10
403.897122
 20
489.872399
 10
404.569292
 20
492.437856
 10
405.183738
 20
494.953445
 10
405.733953
 20
497.407726
 10
406.213097
 20
499.786155
 10
406.61559
 20
502.077675
 10
406.937205
 20
504.277734
 10
407.173787
 20
506.385149
 10
407.32012
 20
508.396083
 10
407.356939
 20
509.339362
  0
LWPOLYLINE
  5
1344
100
AcDbEntity
  8
VHH-025
100
AcDbPolyline
 90
        4
 70
     1
 43
0.0
 10
343.392825
 20
508.454426
 10
361.392825
 20
508.454426
 10
361.392825
 20
443.898158
 10
343.392825
 20
443.898158
  0
LWPOLYLINE
  5
1345
100
AcDbEntity
  8
VHH-025
100
AcDbPolyline
 90
       12
 70
     0
 43
0.0
 10
431.381653
 20
509.322402
 10
431.128894
 20
505.187842
 10
430.558264
 20
500.609171
 10
428.543836
 20
490.410015
 10
424.309008
 20
475.584507
 10
418.866178
 20
461.075906
 10
412.322174
 20
447.406734
 10
411.470294
 20
445.87462
 10
410.237282
 20
443.786616
 10
406.766281
 20
438.383961
 10
405.428357
 20
436.29298
 10
405.037314
 20
435.6309
  0
LWPOLYLINE
  5
1346
100
AcDbEntity
  8
VHH-025
100
AcDbPolyline
 90
       43
 70
     0
 43
0.0
 10
393.891509
 20
435.626999
 10
393.910129
 20
435.670381
 10
394.268958
 20
436.440859
 10
395.46435
 20
438.827589
 10
396.973723
 20
441.7931
 10
398.40439
 20
444.667975
 10
398.98479
 20
445.890852
 10
399.554269
 20
447.10115
 10
399.964308
 20
447.974219
 10
400.712648
 20
449.571815
 10
401.215671
 20
450.649216
 10
401.889858
 20
452.098335
 10
402.485723
 20
453.384564
 10
403.08058
 20
454.674297
 10
403.767897
 20
456.172301
 10
404.282099
 20
457.298977
 10
405.058615
 20
459.011051
 10
405.491316
 20
459.971076
 10
406.70208
 20
462.682786
 10
407.905424
 20
465.419888
 10
409.092467
 20
468.167946
 10
410.257209
 20
470.918811
 10
411.396553
 20
473.671275
 10
412.507593
 20
476.425198
 10
413.584832
 20
479.174624
 10
414.619949
 20
481.906359
 10
415.604225
 20
484.605325
 10
416.531169
 20
487.261587
 10
416.850563
 20
488.208298
 10
417.39686
 20
489.872479
 10
417.751735
 20
490.988517
 10
418.197857
 20
492.437923
 10
418.573122
 20
493.704505
 10
418.928877
 20
494.953498
 10
419.309958
 20
496.35529
 10
419.582479
 20
497.407767
 10
419.955405
 20
498.934908
 10
420.150838
 20
499.786185
 10
420.627626
 20
502.077695
 10
421.008123
 20
504.277746
 10
421.287683
 20
506.385155
 10
421.460405
 20
508.396084
 10
421.503824
 20
509.339293
  0
LINE
  5
134B
100
AcDbEntity
  8
VHH-025
100
AcDbLine
 10
467.390649
 20
585.5
 30
0.0
 11
467.390649
 21
57.5
 31
0.0
  0
LINE
  5
134C
100
AcDbEntity
  8
VHH-025
100
AcDbLine
 10
237.390651
 20
57.5
 30
0.0
 11
237.390651
 21
585.5
 31
0.0
  0
LINE
  5
134D
100
AcDbEntity
  8
VHH-025
100
AcDbLine
 10
237.390651
 20
585.5
 30
0.0
 11
237.390651
 21
57.5
 31
0.0
  0
LINE
  5
1358
100
AcDbEntity
  8
VHH-025
100
AcDbLine
 10
474.779127
 20
1.0
 30
0.0
 11
473.05677
 21
39.559818
 31
0.0
  0
LINE
  5
1359
100
AcDbEntity
  8
VHH-025
100
AcDbLine
 10
466.670484
 20
0.0
 30
0.0
 11
466.239741
 21
55.140004
 31
0.0
  0
LINE
  5
135A
100
AcDbEntity
  8
VHH-025
100
AcDbLine
 10
467.389563
 20
0.0
 30
0.0
 11
466.940053
 21
56.508727
 31
0.0
  0
INSERT
  5
135D
100
AcDbEntity
  8
VHH-050
100
AcDbBlockReference
  2
A$C7A7B4A19
 10
159.084613
 20
21.322331
 30
0.0
  0
LINE
  5
135E
100
AcDbEntity
  8
VHH-025
100
AcDbLine
 10
237.389563
 20
0.0
 30
0.0
 11
237.839073
 21
56.508727
 31
0.0
  0
LINE
  5
135F
100
AcDbEntity
  8
VHH-025
100
AcDbLine
 10
238.108642
 20
0.0
 30
0.0
 11
238.539385
 21
55.140004
 31
0.0
  0
LINE
  5
1360
100
AcDbEntity
  8
VHH-025
100
AcDbLine
 10
236.670485
 20
0.0
 30
0.0
 11
236.239742
 21
55.140004
 31
0.0
  0
LINE
  5
1361
100
AcDbEntity
  8
VHH-025
100
AcDbLine
 10
237.389564
 20
0.0
 30
0.0
 11
236.940054
 21
56.508727
 31
0.0
  0
LWPOLYLINE
  5
1362
100
AcDbEntity
  8
VHH-025
100
AcDbPolyline
 90
        6
 70
     0
 43
0.0
 10
237.390651
 20
57.5
 10
468.388475
 20
57.5
 42
-0.414214
 10
469.388475
 20
56.5
 10
469.388475
 20
21.5
 42
-0.414214
 10
468.388475
 20
20.5
 10
467.226491
 20
20.5
  0
LINE
  5
1363
100
AcDbEntity
  8
VHH-025
100
AcDbLine
 10
473.198172
 20
0.0
 30
0.0
 11
237.389563
 21
0.0
 31
0.0
  0
INSERT
  5
1364
100
AcDbEntity
  8
VHH-050
100
AcDbBlockReference
  2
A$C605007EB
 10
109.863924
 20
7.429986
 30
0.0
  0
LINE
  5
1366
100
AcDbEntity
  8
VHH-025
100
AcDbLine
 10
467.381608
 20
1.0
 30
0.0
 11
474.779127
 21
1.0
 31
0.0
  0
LINE
  5
1367
100
AcDbEntity
  8
VHH-025
100
AcDbLine
 10
473.198172
 20
0.0
 30
0.0
 11
473.198172
 21
1.0
 31
0.0
  0
LINE
  5
1374
100
AcDbEntity
  8
VHH-025
100
AcDbLine
 10
375.676242
 20
395.674345
 30
0.0
 11
456.757202
 21
395.604646
 31
0.0
  0
LINE
  5
1375
100
AcDbEntity
  8
VHH-025
100
AcDbLine
 10
459.801069
 20
397.499982
 30
0.0
 11
375.75351
 21
397.500035
 31
0.0
  0
LINE
  5
1376
100
AcDbEntity
  8
VHH-025
100
AcDbLine
 10
375.915077
 20
387.500032
 30
0.0
 11
463.616804
 21
387.499983
 31
0.0
  0
LINE
  5
1377
100
AcDbEntity
  8
VHH-025
100
AcDbLine
 10
462.556245
 20
386.5
 30
0.0
 11
375.948151
 21
386.5
 31
0.0
  0
ARC
  5
1378
100
AcDbEntity
  8
VHH-025
100
AcDbCircle
 10
419.372339
 20
363.927007
 30
0.0
 40
43.0
100
AcDbArc
 50
95.459702
 51
116.737455
  0
LINE
  5
1379
100
AcDbEntity
  8
VHH-025
100
AcDbLine
 10
394.021821
 20
397.701549
 30
0.0
 11
444.722143
 21
397.701626
 31
0.0
  0
LINE
  5
137A
100
AcDbEntity
  8
VHH-025
100
AcDbLine
 10
443.682823
 20
399.097453
 30
0.0
 11
395.061136
 21
399.097379
 31
0.0
  0
LINE
  5
137B
100
AcDbEntity
  8
VHH-025
100
AcDbLine
 10
396.175809
 20
399.500164
 30
0.0
 11
442.605004
 21
399.500235
 31
0.0
  0
LINE
  5
137C
100
AcDbEntity
  8
VHH-025
100
AcDbLine
 10
462.782794
 20
59.5
 30
0.0
 11
352.392825
 21
59.5
 31
0.0
  0
LINE
  5
137D
100
AcDbEntity
  8
VHH-025
100
AcDbLine
 10
466.239741
 20
55.140004
 30
0.0
 11
352.389563
 21
55.140004
 31
0.0
  0
LINE
  5
137E
100
AcDbEntity
  8
VHH-025
100
AcDbLine
 10
252.262733
 20
384.176077
 30
0.0
 11
252.050915
 21
59.5
 31
0.0
  0
LINE
  5
137F
100
AcDbEntity
  8
VHH-025
100
AcDbLine
 10
246.321957
 20
367.881387
 30
0.0
 11
246.292825
 21
86.779748
 31
0.0
  0
LINE
  5
1380
100
AcDbEntity
  8
VHH-025
100
AcDbLine
 10
222.522918
 20
384.176077
 30
0.0
 11
222.734411
 21
59.998566
 31
0.0
  0
LINE
  5
1381
100
AcDbEntity
  8
VHH-025
100
AcDbLine
 10
228.463695
 20
367.881387
 30
0.0
 11
228.492827
 21
86.779748
 31
0.0
  0
SPLINE
  5
1382
100
AcDbEntity
  8
VHH-025
100
AcDbSpline
210
0.0
220
0.0
230
-1.0
 70
     8
 71
     3
 72
    16
 73
    12
 74
    10
 42
0.0000001
 43
0.0000001
 44
0.0000000001
 40
0.0
 40
0.0
 40
0.0
 40
0.0
 40
10.85190292105393
 40
27.28373762760674
 40
54.66412706193981
 40
69.64810772620217
 40
94.65864719296774
 40
127.0894285334894
 40
142.0601638503295
 40
154.5348977132991
 40
159.5282562252856
 40
159.5282562252856
 40
159.5282562252856
 40
159.5282562252856
 10
147.2305575219988
 20
226.9834788393786
 30
0.0
 10
147.1480211737196
 20
230.5998404380019
 30
0.0
 10
146.9405091744348
 20
239.6920578805262
 30
0.0
 10
146.5914124237552
 20
257.9101169594976
 30
0.0
 10
146.2777870143803
 20
277.5064598167015
 30
0.0
 10
146.0385575094289
 20
299.9635126364078
 30
0.0
 10
145.8457828813629
 20
324.1046218323529
 30
0.0
 10
145.847995342208
 20
348.2423185866499
 30
0.0
 10
145.9600682171163
 20
368.2007868031961
 30
0.0
 10
146.0626207319547
 20
379.0132601394316
 30
0.0
 10
146.1235249033695
 20
384.8356383609888
 30
0.0
 10
146.1409347244434
 20
386.4999999425831
 30
0.0
 11
147.2305575219988
 21
226.9834788393786
 31
0.0
 11
146.9882121168875
 21
237.8326753862479
 31
0.0
 11
146.6678161068202
 21
254.2613861762097
 31
0.0
 11
146.2432223026853
 21
281.6384832772032
 31
0.0
 11
146.0791497576765
 21
296.6215656285407
 31
0.0
 11
145.8948516168993
 21
321.6314260562589
 31
0.0
 11
145.8893815069013
 21
354.0622069354581
 31
0.0
 11
145.9752716898028
 21
369.0326958654618
 31
0.0
 11
146.0891694213232
 21
381.5069097588771
 31
0.0
 11
146.1409347244434
 21
386.4999999425831
 31
0.0
  0
SPLINE
  5
1383
100
AcDbEntity
  8
VHH-025
100
AcDbSpline
210
0.0
220
0.0
230
1.0
 70
     8
 71
     3
 72
    16
 73
    12
 74
    10
 42
0.0000001
 43
0.0000001
 44
0.0000000001
 40
0.0
 40
0.0
 40
0.0
 40
0.0
 40
10.85190292105393
 40
27.2837376276067
 40
54.66412706193979
 40
69.64810772620215
 40
94.65864719296773
 40
127.0894285334894
 40
142.0601638503295
 40
154.5348977132991
 40
159.5282562252856
 40
159.5282562252856
 40
159.5282562252856
 40
159.5282562252856
 10
97.75509356922249
 20
226.9834788393786
 30
0.0
 10
97.83762991750183
 20
230.5998404380019
 30
0.0
 10
98.04514191678686
 20
239.6920578805262
 30
0.0
 10
98.39423866746271
 20
257.9101169594978
 30
0.0
 10
98.70786407684162
 20
277.5064598167014
 30
0.0
 10
98.94709358179222
 20
299.9635126364079
 30
0.0
 10
99.13986820985849
 20
324.104621832353
 30
0.0
 10
99.13765574901329
 20
348.2423185866499
 30
0.0
 10
99.02558287410503
 20
368.2007868031961
 30
0.0
 10
98.92303035926671
 20
379.0132601394316
 30
0.0
 10
98.86212618785179
 20
384.8356383609888
 30
0.0
 10
98.8447163667779
 20
386.4999999425831
 30
0.0
 11
97.75509356922249
 21
226.9834788393786
 31
0.0
 11
97.99743897433382
 21
237.8326753862479
 31
0.0
 11
98.31783498439927
 21
254.2613861762097
 31
0.0
 11
98.74242878853602
 21
281.6384832772032
 31
0.0
 11
98.90650133354483
 21
296.6215656285407
 31
0.0
 11
99.09079947432202
 21
321.6314260562589
 31
0.0
 11
99.09626958431999
 21
354.0622069354581
 31
0.0
 11
99.01037940141851
 21
369.0326958654618
 31
0.0
 11
98.89648166989809
 21
381.5069097588771
 31
0.0
 11
98.8447163667779
 21
386.4999999425831
 31
0.0
  0
LINE
  5
1384
100
AcDbEntity
  8
VHH-025
100
AcDbLine
 10
144.599673
 20
250.277601
 30
0.0
 11
144.599673
 21
386.5
 31
0.0
  0
LINE
  5
1385
100
AcDbEntity
  8
VHH-025
100
AcDbLine
 10
100.385978
 20
250.277601
 30
0.0
 11
100.385978
 21
386.5
 31
0.0
  0
SPLINE
  5
1386
100
AcDbEntity
  8
VHH-025
100
AcDbSpline
210
0.0
220
0.0
230
-1.0
 70
     8
 71
     3
 72
    12
 73
     8
 74
     0
 42
0.0000001
 43
0.0000001
 40
0.0
 40
0.0
 40
0.0
 40
0.0
 40
0.892898863725035
 40
1.516803918134276
 40
4.464088593242262
 40
7.443930533147192
 40
8.036731721038405
 40
8.036731721038405
 40
8.036731721038405
 40
8.036731721038405
 10
100.7486331845148
 20
249.670245872549
 30
0.0
 10
100.7684645651925
 20
249.9795322660915
 30
0.0
 10
100.8021529448442
 20
250.5049297468244
 30
0.0
 10
101.8722599552611
 20
251.6092288818549
 30
0.0
 10
103.6605702187671
 20
252.8271187105242
 30
0.0
 10
105.5015092216954
 20
253.9952561029472
 30
0.0
 10
106.5364252497847
 20
254.5855470643032
 30
0.0
 10
106.708719645273
 20
254.6824021230627
 30
0.0
  0
LINE
  5
1387
100
AcDbEntity
  8
VHH-025
100
AcDbLine
 10
107.342345
 20
250.500004
 30
0.0
 11
107.593092
 21
258.050004
 31
0.0
  0
LINE
  5
1388
100
AcDbEntity
  8
VHH-025
100
AcDbLine
 10
109.110334
 20
250.500004
 30
0.0
 11
109.332942
 21
258.050004
 31
0.0
  0
LINE
  5
1389
100
AcDbEntity
  8
VHH-025
100
AcDbLine
 10
106.492826
 20
248.500004
 30
0.0
 11
106.827233
 21
258.076179
 31
0.0
  0
LINE
  5
138A
100
AcDbEntity
  8
VHH-025
100
AcDbLine
 10
111.757345
 20
250.500004
 30
0.0
 11
111.937827
 21
258.050004
 31
0.0
  0
LINE
  5
138B
100
AcDbEntity
  8
VHH-025
100
AcDbLine
 10
115.15734
 20
250.500004
 30
0.0
 11
115.284355
 21
258.050004
 31
0.0
  0
LINE
  5
138C
100
AcDbEntity
  8
VHH-025
100
AcDbLine
 10
119.107331
 20
250.500004
 30
0.0
 11
119.172898
 21
258.050004
 31
0.0
  0
SPLINE
  5
138D
100
AcDbEntity
  8
VHH-025
100
AcDbSpline
210
0.0
220
0.0
230
-1.0
 70
     8
 71
     3
 72
    12
 73
     8
 74
     0
 42
0.0000001
 43
0.0000001
 40
0.0
 40
0.0
 40
0.0
 40
0.0
 40
0.892898863725035
 40
1.516803918134276
 40
4.464088593242262
 40
7.443930533147192
 40
8.036731721038924
 40
8.036731721038924
 40
8.036731721038924
 40
8.036731721038924
 10
144.2370179067065
 20
249.670245872549
 30
0.0
 10
144.2171865260288
 20
249.9795322660915
 30
0.0
 10
144.1834981463771
 20
250.5049297468244
 30
0.0
 10
143.1133911359584
 20
251.6092288818549
 30
0.0
 10
141.3250808724542
 20
252.8271187105242
 30
0.0
 10
139.4841418695259
 20
253.9952561029472
 30
0.0
 10
138.4492258414365
 20
254.5855470643041
 30
0.0
 10
138.2769314459483
 20
254.6824021230627
 30
0.0
  0
LINE
  5
138E
100
AcDbEntity
  8
VHH-025
100
AcDbLine
 10
138.492826
 20
248.500004
 30
0.0
 11
138.158418
 21
258.076179
 31
0.0
  0
LINE
  5
138F
100
AcDbEntity
  8
VHH-025
100
AcDbLine
 10
135.875318
 20
250.500004
 30
0.0
 11
135.652709
 21
258.050004
 31
0.0
  0
LINE
  5
1390
100
AcDbEntity
  8
VHH-025
100
AcDbLine
 10
137.643307
 20
250.500004
 30
0.0
 11
137.392559
 21
258.050004
 31
0.0
  0
LINE
  5
1391
100
AcDbEntity
  8
VHH-025
100
AcDbLine
 10
133.228306
 20
250.500004
 30
0.0
 11
133.047824
 21
258.050004
 31
0.0
  0
LINE
  5
1392
100
AcDbEntity
  8
VHH-025
100
AcDbLine
 10
129.828311
 20
250.500004
 30
0.0
 11
129.701296
 21
258.050004
 31
0.0
  0
LINE
  5
1393
100
AcDbEntity
  8
VHH-025
100
AcDbLine
 10
125.878321
 20
250.500004
 30
0.0
 11
125.812753
 21
258.050004
 31
0.0
  0
SPLINE
  5
1394
100
AcDbEntity
  8
VHH-025
100
AcDbSpline
210
0.0
220
0.0
230
-1.0
 70
     8
 71
     3
 72
    16
 73
    12
 74
    10
 42
0.0000001
 43
0.0000001
 44
0.0000000001
 40
0.0
 40
0.0
 40
0.0
 40
0.0
 40
10.85190292105393
 40
27.28373762760674
 40
54.66412706193981
 40
69.64810772620217
 40
94.65864719296774
 40
127.0894285334894
 40
142.0601638503295
 40
154.5348977132991
 40
159.5282562252856
 40
159.5282562252856
 40
159.5282562252856
 40
159.5282562252856
 10
377.2305563923882
 20
226.9834788393786
 30
0.0
 10
377.148020044109
 20
230.5998404380019
 30
0.0
 10
376.9405080448243
 20
239.6920578805262
 30
0.0
 10
376.5914112941446
 20
257.9101169594976
 30
0.0
 10
376.2777858847696
 20
277.5064598167015
 30
0.0
 10
376.0385563798184
 20
299.9635126364078
 30
0.0
 10
375.8457817517522
 20
324.1046218323529
 30
0.0
 10
375.8479942125975
 20
348.2423185866499
 30
0.0
 10
375.9600670875057
 20
368.2007868031961
 30
0.0
 10
376.0626196023442
 20
379.0132601394316
 30
0.0
 10
376.1235237737589
 20
384.8356383609888
 30
0.0
 10
376.1409335948328
 20
386.4999999425831
 30
0.0
 11
377.2305563923882
 21
226.9834788393786
 31
0.0
 11
376.9882109872769
 21
237.8326753862479
 31
0.0
 11
376.6678149772096
 21
254.2613861762097
 31
0.0
 11
376.2432211730747
 21
281.6384832772032
 31
0.0
 11
376.0791486280659
 21
296.6215656285407
 31
0.0
 11
375.8948504872887
 21
321.6314260562589
 31
0.0
 11
375.8893803772907
 21
354.0622069354581
 31
0.0
 11
375.9752705601922
 21
369.0326958654618
 31
0.0
 11
376.0891682917126
 21
381.5069097588771
 31
0.0
 11
376.1409335948328
 21
386.4999999425831
 31
0.0
  0
SPLINE
  5
1395
100
AcDbEntity
  8
VHH-025
100
AcDbSpline
210
0.0
220
0.0
230
1.0
 70
     8
 71
     3
 72
    16
 73
    12
 74
    10
 42
0.0000001
 43
0.0000001
 44
0.0000000001
 40
0.0
 40
0.0
 40
0.0
 40
0.0
 40
10.85190292105393
 40
27.2837376276067
 40
54.66412706193979
 40
69.64810772620215
 40
94.65864719296773
 40
127.0894285334894
 40
142.0601638503295
 40
154.5348977132991
 40
159.5282562252856
 40
159.5282562252856
 40
159.5282562252856
 40
159.5282562252856
 10
327.7550924396118
 20
226.9834788393786
 30
0.0
 10
327.8376287878912
 20
230.5998404380019
 30
0.0
 10
328.0451407871762
 20
239.6920578805262
 30
0.0
 10
328.3942375378521
 20
257.9101169594978
 30
0.0
 10
328.7078629472309
 20
277.5064598167014
 30
0.0
 10
328.9470924521816
 20
299.9635126364079
 30
0.0
 10
329.1398670802478
 20
324.104621832353
 30
0.0
 10
329.1376546194027
 20
348.2423185866499
 30
0.0
 10
329.0255817444943
 20
368.2007868031961
 30
0.0
 10
328.9230292296561
 20
379.0132601394316
 30
0.0
 10
328.8621250582411
 20
384.8356383609888
 30
0.0
 10
328.8447152371673
 20
386.4999999425831
 30
0.0
 11
327.7550924396118
 21
226.9834788393786
 31
0.0
 11
327.9974378447231
 21
237.8326753862479
 31
0.0
 11
328.3178338547886
 21
254.2613861762097
 31
0.0
 11
328.7424276589254
 21
281.6384832772032
 31
0.0
 11
328.9065002039342
 21
296.6215656285407
 31
0.0
 11
329.0907983447114
 21
321.6314260562589
 31
0.0
 11
329.0962684547094
 21
354.0622069354581
 31
0.0
 11
329.0103782718079
 21
369.0326958654618
 31
0.0
 11
328.8964805402875
 21
381.5069097588771
 31
0.0
 11
328.8447152371673
 21
386.4999999425831
 31
0.0
  0
LINE
  5
1396
100
AcDbEntity
  8
VHH-025
100
AcDbLine
 10
330.385977
 20
250.277601
 30
0.0
 11
330.385977
 21
386.5
 31
0.0
  0
LINE
  5
1397
100
AcDbEntity
  8
VHH-025
100
AcDbLine
 10
374.599672
 20
250.277601
 30
0.0
 11
374.599672
 21
386.5
 31
0.0
  0
SPLINE
  5
1398
100
AcDbEntity
  8
VHH-025
100
AcDbSpline
210
0.0
220
0.0
230
-1.0
 70
     8
 71
     3
 72
    12
 73
     8
 74
     0
 42
0.0000001
 43
0.0000001
 40
0.0
 40
0.0
 40
0.0
 40
0.0
 40
0.892898863725035
 40
1.516803918134276
 40
4.464088593242262
 40
7.443930533147192
 40
8.036731721038924
 40
8.036731721038924
 40
8.036731721038924
 40
8.036731721038924
 10
374.2370167770959
 20
249.670245872549
 30
0.0
 10
374.2171853964182
 20
249.9795322660915
 30
0.0
 10
374.1834970167665
 20
250.5049297468244
 30
0.0
 10
373.1133900063478
 20
251.6092288818549
 30
0.0
 10
371.3250797428436
 20
252.8271187105242
 30
0.0
 10
369.4841407399153
 20
253.9952561029472
 30
0.0
 10
368.449224711826
 20
254.5855470643041
 30
0.0
 10
368.2769303163377
 20
254.6824021230627
 30
0.0
  0
LINE
  5
1399
100
AcDbEntity
  8
VHH-025
100
AcDbLine
 10
365.875316
 20
250.500004
 30
0.0
 11
365.652708
 21
258.050004
 31
0.0
  0
LINE
  5
139A
100
AcDbEntity
  8
VHH-025
100
AcDbLine
 10
367.643305
 20
250.500004
 30
0.0
 11
367.392558
 21
258.050004
 31
0.0
  0
LINE
  5
139B
100
AcDbEntity
  8
VHH-025
100
AcDbLine
 10
349.107329
 20
250.500004
 30
0.0
 11
349.172897
 21
258.050004
 31
0.0
  0
LINE
  5
139C
100
AcDbEntity
  8
VHH-025
100
AcDbLine
 10
345.157339
 20
250.500004
 30
0.0
 11
345.284354
 21
258.050004
 31
0.0
  0
LINE
  5
139D
100
AcDbEntity
  8
VHH-025
100
AcDbLine
 10
363.228305
 20
250.500004
 30
0.0
 11
363.047823
 21
258.050004
 31
0.0
  0
LINE
  5
139E
100
AcDbEntity
  8
VHH-025
100
AcDbLine
 10
359.82831
 20
250.500004
 30
0.0
 11
359.701295
 21
258.050004
 31
0.0
  0
LINE
  5
139F
100
AcDbEntity
  8
VHH-025
100
AcDbLine
 10
355.878319
 20
250.500004
 30
0.0
 11
355.812752
 21
258.050004
 31
0.0
  0
LINE
  5
13A0
100
AcDbEntity
  8
VHH-025
100
AcDbLine
 10
368.492824
 20
248.500004
 30
0.0
 11
368.158417
 21
258.076179
 31
0.0
  0
SPLINE
  5
13A1
100
AcDbEntity
  8
VHH-025
100
AcDbSpline
210
0.0
220
0.0
230
-1.0
 70
     8
 71
     3
 72
    12
 73
     8
 74
     0
 42
0.0000001
 43
0.0000001
 40
0.0
 40
0.0
 40
0.0
 40
0.0
 40
0.892898863725035
 40
1.516803918134276
 40
4.464088593242262
 40
7.443930533147192
 40
8.036731721038405
 40
8.036731721038405
 40
8.036731721038405
 40
8.036731721038405
 10
330.7486320549041
 20
249.670245872549
 30
0.0
 10
330.7684634355819
 20
249.9795322660915
 30
0.0
 10
330.8021518152336
 20
250.5049297468244
 30
0.0
 10
331.8722588256505
 20
251.6092288818549
 30
0.0
 10
333.6605690891565
 20
252.8271187105242
 30
0.0
 10
335.5015080920848
 20
253.9952561029472
 30
0.0
 10
336.5364241201741
 20
254.5855470643032
 30
0.0
 10
336.7087185156624
 20
254.6824021230627
 30
0.0
  0
LINE
  5
13A2
100
AcDbEntity
  8
VHH-025
100
AcDbLine
 10
337.342343
 20
250.500004
 30
0.0
 11
337.593091
 21
258.050004
 31
0.0
  0
LINE
  5
13A3
100
AcDbEntity
  8
VHH-025
100
AcDbLine
 10
339.110332
 20
250.500004
 30
0.0
 11
339.332941
 21
258.050004
 31
0.0
  0
LINE
  5
13A4
100
AcDbEntity
  8
VHH-025
100
AcDbLine
 10
336.492824
 20
248.500004
 30
0.0
 11
336.827232
 21
258.076179
 31
0.0
  0
LINE
  5
13A5
100
AcDbEntity
  8
VHH-025
100
AcDbLine
 10
341.757344
 20
250.500004
 30
0.0
 11
341.937826
 21
258.050004
 31
0.0
  0
LINE
  5
13A6
100
AcDbEntity
  8
VHH-025
100
AcDbLine
 10
236.239742
 20
55.140004
 30
0.0
 11
122.389564
 21
55.140004
 31
0.0
  0
LINE
  5
13A7
100
AcDbEntity
  8
VHH-025
100
AcDbLine
 10
232.782796
 20
59.5
 30
0.0
 11
122.392826
 21
59.5
 31
0.0
  0
SPLINE
  5
13A8
100
AcDbEntity
  8
VHH-025
100
AcDbSpline
210
0.0
220
0.0
230
-1.0
 70
     8
 71
     3
 72
    14
 73
    10
 74
     8
 42
0.0000001
 43
0.0000001
 44
0.0000000001
 40
0.0
 40
0.0
 40
0.0
 40
0.0
 40
1.042699229939018
 40
2.81015927119908
 40
5.132104488893032
 40
8.545412163540852
 40
14.83806452703922
 40
23.23839865586867
 40
26.59484554393205
 40
26.59484554393205
 40
26.59484554393205
 40
26.59484554393205
 10
228.2341179404675
 20
86.4168177538154
 30
0.0
 10
228.090906085127
 20
86.0998919144891
 30
0.0
 10
227.7049384815504
 20
85.24575098861786
 30
0.0
 10
227.2530372059228
 20
83.5838625870542
 30
0.0
 10
227.0195104937943
 20
81.08944430745269
 30
0.0
 10
226.747235613933
 20
77.09051834881711
 30
0.0
 10
226.6487893404852
 20
71.05280090567001
 30
0.0
 10
226.6021999328929
 20
65.03749804162265
 30
0.0
 10
226.5822281521772
 20
61.11855248837159
 30
0.0
 10
226.5765264025967
 20
59.99973156385158
 30
0.0
 11
228.2341179404675
 21
86.4168177538154
 31
0.0
 11
227.8235534985424
 21
85.45835099740589
 31
0.0
 11
227.345349405391
 21
83.75681174051397
 31
0.0
 11
227.0614596577224
 21
81.45228658223505
 31
0.0
 11
226.8330611414212
 21
78.04662902464634
 31
0.0
 11
226.6679457554846
 21
71.75614329799782
 31
0.0
 11
226.5944772593784
 21
63.35613044943284
 31
0.0
 11
226.5765264025967
 21
59.99973156385158
 31
0.0
  0
LINE
  5
13A9
100
AcDbEntity
  8
VHH-025
100
AcDbLine
 10
230.848092
 20
81.931261
 30
0.0
 11
233.465211
 21
60.010978
 31
0.0
  0
SPLINE
  5
13AA
100
AcDbEntity
  8
VHH-025
100
AcDbSpline
210
0.0
220
0.0
230
1.0
 70
     8
 71
     3
 72
     9
 73
     5
 74
     3
 42
0.0000001
 43
0.0000001
 44
0.0000000001
 40
0.0
 40
0.0
 40
0.0
 40
0.0
 40
0.3652855011139116
 40
1.009075545627074
 40
1.009075545627074
 40
1.009075545627074
 40
1.009075545627074
 10
233.4652107929732
 20
60.01097831338075
 30
0.0
 10
233.4644556707333
 20
59.8740367369616
 30
0.0
 10
233.4623696985723
 20
59.49574524846069
 30
0.0
 10
233.0474892469419
 20
59.49834277711407
 30
0.0
 10
232.7827955819529
 20
59.49999999999954
 30
0.0
 11
233.4652107929732
 21
60.01097831338075
 31
0.0
 11
233.4088511409945
 21
59.65006684646278
 31
0.0
 11
232.7827955819529
 21
59.49999999999954
 31
0.0
  0
LINE
  5
13AB
100
AcDbEntity
  8
VHH-025
100
AcDbLine
 10
232.491132
 20
59.5
 30
0.0
 11
232.491132
 21
57.5
 31
0.0
  0
SPLINE
  5
13AC
100
AcDbEntity
  8
VHH-025
100
AcDbSpline
210
0.0
220
0.0
230
-1.0
 70
     8
 71
     3
 72
    13
 73
     9
 74
     7
 42
0.0000001
 43
0.0000001
 44
0.0000000001
 40
0.0
 40
0.0
 40
0.0
 40
0.0
 40
1.069269359765731
 40
2.131729584630803
 40
3.197797541178194
 40
4.262175338941027
 40
4.899079804343071
 40
5.532914177887702
 40
5.532914177887702
 40
5.532914177887702
 40
5.532914177887702
 10
228.4928265245807
 20
86.77974786632011
 30
0.0
 10
228.5147710252246
 20
86.4224173978147
 30
0.0
 10
228.5585202833654
 20
85.71003195045664
 30
0.0
 10
228.9121630363449
 20
84.69404124085231
 30
0.0
 10
229.4451823034502
 20
83.7580553319618
 30
0.0
 10
230.108562661876
 20
83.11816281432951
 30
0.0
 10
230.6587404756512
 20
82.54691720436166
 30
0.0
 10
230.7850764695283
 20
82.13614872162359
 30
0.0
 10
230.8480918532413
 20
81.93126068645188
 30
0.0
 11
228.4928265245807
 21
86.77974786632011
 31
0.0
 11
228.6069665536533
 21
85.71658794537825
 31
0.0
 11
228.9416476760825
 21
84.70821783688142
 31
0.0
 11
229.4842884872932
 21
83.79058946003942
 31
0.0
 11
230.2083007225419
 21
83.01039308759163
 31
0.0
 11
230.6159886794257
 21
82.52106923996008
 31
0.0
 11
230.8480918532413
 21
81.93126068645188
 31
0.0
  0
SPLINE
  5
13AD
100
AcDbEntity
  8
VHH-025
100
AcDbSpline
210
0.0
220
0.0
230
1.0
 70
     8
 71
     3
 72
     9
 73
     5
 74
     3
 42
0.0000001
 43
0.0000001
 44
0.0000000001
 40
0.0
 40
0.0
 40
0.0
 40
0.0
 40
4.377888469770917
 40
8.000949851347465
 40
8.000949851347465
 40
8.000949851347465
 40
8.000949851347465
 10
139.2352459727417
 20
227.2398460238477
 30
0.0
 10
140.6922565581193
 20
227.1514715822617
 30
0.0
 10
143.3550627732576
 20
226.9899600498979
 30
0.0
 10
146.0226134588602
 20
226.9854989530096
 30
0.0
 10
147.2305575219988
 20
226.9834788393786
 30
0.0
 11
139.2352459727417
 21
227.2398460238477
 31
0.0
 11
143.6076982053227
 21
227.0217430033503
 31
0.0
 11
147.2305575219988
 21
226.9834788393786
 31
0.0
  0
LINE
  5
13AE
100
AcDbEntity
  8
VHH-025
100
AcDbLine
 10
106.492826
 20
248.500004
 30
0.0
 11
138.492826
 21
248.500004
 31
0.0
  0
LINE
  5
13AF
100
AcDbEntity
  8
VHH-025
100
AcDbLine
 10
138.365236
 20
222.500004
 30
0.0
 11
106.620417
 21
222.500004
 31
0.0
  0
LINE
  5
13B0
100
AcDbEntity
  8
VHH-025
100
AcDbLine
 10
115.492826
 20
202.500004
 30
0.0
 11
129.492826
 21
202.500004
 31
0.0
  0
LINE
  5
13B1
100
AcDbEntity
  8
VHH-025
100
AcDbLine
 10
114.492826
 20
206.000004
 30
0.0
 11
130.492826
 21
206.000004
 31
0.0
  0
LINE
  5
13B2
100
AcDbEntity
  8
VHH-025
100
AcDbLine
 10
114.492826
 20
208.000004
 30
0.0
 11
130.492826
 21
208.000004
 31
0.0
  0
LINE
  5
13B3
100
AcDbEntity
  8
VHH-025
100
AcDbLine
 10
123.91323
 20
250.500004
 30
0.0
 11
125.878321
 21
250.500004
 31
0.0
  0
LINE
  5
13B4
100
AcDbEntity
  8
VHH-025
100
AcDbLine
 10
116.96747
 20
250.500004
 30
0.0
 11
115.15734
 21
250.500004
 31
0.0
  0
SPLINE
  5
13B5
100
AcDbEntity
  8
VHH-025
100
AcDbSpline
210
0.0
220
0.0
230
1.0
 70
     8
 71
     3
 72
    11
 73
     7
 74
     5
 42
0.0000001
 43
0.0000001
 44
0.0000000001
 40
0.0
 40
0.0
 40
0.0
 40
0.0
 40
3.507846858670609
 40
6.8749459898285
 40
13.583656471553
 40
18.98257100025055
 40
18.98257100025055
 40
18.98257100025055
 40
18.98257100025055
 10
98.7428161595899
 20
226.9751439848473
 30
0.0
 10
99.49646265328874
 20
226.0774717259159
 30
0.0
 10
100.9735165693673
 20
224.3181451231979
 30
0.0
 10
104.4912494201896
 20
221.4463472934984
 30
0.0
 10
108.9174005285778
 20
218.6942221434035
 30
0.0
 10
112.7733975551811
 20
217.4654141265149
 30
0.0
 10
114.492826291339
 20
216.9174759925167
 30
0.0
 11
98.7428161595899
 21
226.9751439848473
 31
0.0
 11
101.0827268082221
 21
224.3617538990961
 31
0.0
 11
103.6563230335241
 21
222.1905885373248
 31
0.0
 11
109.4126665092435
 21
218.7451123558453
 31
0.0
 11
114.492826291339
 21
216.9174759925167
 31
0.0
  0
SPLINE
  5
13B6
100
AcDbEntity
  8
VHH-025
100
AcDbSpline
210
0.0
220
0.0
230
1.0
 70
     8
 71
     3
 72
     9
 73
     5
 74
     3
 42
0.0000001
 43
0.0000001
 44
0.0000000001
 40
0.0
 40
0.0
 40
0.0
 40
0.0
 40
4.377888469769101
 40
8.000949851345648
 40
8.000949851345648
 40
8.000949851345648
 40
8.000949851345648
 10
105.7504051184778
 20
227.2398460238477
 30
0.0
 10
104.2933945331008
 20
227.1514715822617
 30
0.0
 10
101.630588317963
 20
226.9899600498979
 30
0.0
 10
98.96303763236108
 20
226.9854989530096
 30
0.0
 10
97.75509356922249
 20
226.9834788393786
 30
0.0
 11
105.7504051184778
 21
227.2398460238477
 31
0.0
 11
101.3779528858985
 21
227.0217430033503
 31
0.0
 11
97.75509356922249
 21
226.9834788393786
 31
0.0
  0
LINE
  5
13B7
100
AcDbEntity
  8
VHH-025
100
AcDbLine
 10
101.480685
 20
250.329031
 30
0.0
 11
104.145336
 21
247.304525
 31
0.0
  0
LINE
  5
13B8
100
AcDbEntity
  8
VHH-025
100
AcDbLine
 10
100.385978
 20
250.277601
 30
0.0
 11
100.822788
 21
250.275893
 31
0.0
  0
LINE
  5
13B9
100
AcDbEntity
  8
VHH-025
100
AcDbLine
 10
100.387818
 20
226.98505
 30
0.0
 11
100.387818
 21
249.670246
 31
0.0
  0
LINE
  5
13BA
100
AcDbEntity
  8
VHH-025
100
AcDbLine
 10
100.748633
 20
226.998421
 30
0.0
 11
100.748633
 21
249.670246
 31
0.0
  0
LINE
  5
13BB
100
AcDbEntity
  8
VHH-025
100
AcDbLine
 10
113.298777
 20
250.500004
 30
0.0
 11
111.757345
 21
250.500004
 31
0.0
  0
LINE
  5
13BC
100
AcDbEntity
  8
VHH-025
100
AcDbLine
 10
110.286213
 20
250.500004
 30
0.0
 11
109.110334
 21
250.500004
 31
0.0
  0
LINE
  5
13BD
100
AcDbEntity
  8
VHH-025
100
AcDbLine
 10
108.078787
 20
250.500004
 30
0.0
 11
107.342345
 21
250.500004
 31
0.0
  0
ARC
  5
13BE
100
AcDbEntity
  8
VHH-025
100
AcDbCircle
 10
106.620417
 20
223.500004
 30
0.0
 40
1.0
100
AcDbArc
 50
178.000001
 51
270.000001
  0
LINE
  5
13BF
100
AcDbEntity
  8
VHH-025
100
AcDbLine
 10
106.492826
 20
248.500004
 30
0.0
 11
105.621026
 21
223.534903
 31
0.0
  0
LINE
  5
13C0
100
AcDbEntity
  8
VHH-025
100
AcDbLine
 10
114.492826
 20
220.500004
 30
0.0
 11
114.492826
 21
208.000004
 31
0.0
  0
ARC
  5
13C1
100
AcDbEntity
  8
VHH-025
100
AcDbCircle
 10
113.742826
 20
207.000004
 30
0.0
 40
1.25
100
AcDbArc
 50
306.869898
 51
53.130103
  0
ARC
  5
13C2
100
AcDbEntity
  8
VHH-025
100
AcDbCircle
 10
115.492826
 20
203.500004
 30
0.0
 40
1.0
100
AcDbArc
 50
180.000001
 51
270.000001
  0
LINE
  5
13C3
100
AcDbEntity
  8
VHH-025
100
AcDbLine
 10
114.492826
 20
206.000004
 30
0.0
 11
114.492826
 21
203.500004
 31
0.0
  0
ARC
  5
13C4
100
AcDbEntity
  8
VHH-025
100
AcDbCircle
 10
112.492826
 20
220.500004
 30
0.0
 40
2.0
100
AcDbArc
 50
0.000001
 51
90.000001
  0
LINE
  5
13C5
100
AcDbEntity
  8
VHH-025
100
AcDbLine
 10
121.072422
 20
250.500004
 30
0.0
 11
119.107331
 21
250.500004
 31
0.0
  0
SPLINE
  5
13C6
100
AcDbEntity
  8
VHH-025
100
AcDbSpline
210
0.0
220
0.0
230
1.0
 70
     8
 71
     3
 72
    11
 73
     7
 74
     5
 42
0.0000001
 43
0.0000001
 44
0.0000000001
 40
0.0
 40
0.0
 40
0.0
 40
0.0
 40
3.507846858670609
 40
6.8749459898285
 40
13.583656471553
 40
18.98257100025055
 40
18.98257100025055
 40
18.98257100025055
 40
18.98257100025055
 10
146.2428363054468
 20
226.9751439848473
 30
0.0
 10
145.4891898117479
 20
226.0774717259159
 30
0.0
 10
144.0121358956694
 20
224.3181451231979
 30
0.0
 10
140.494403044847
 20
221.4463472934984
 30
0.0
 10
136.0682519364589
 20
218.6942221434035
 30
0.0
 10
132.2122549098555
 20
217.4654141265149
 30
0.0
 10
130.4928261736977
 20
216.9174759925167
 30
0.0
 11
146.2428363054468
 21
226.9751439848473
 31
0.0
 11
143.9029256568146
 21
224.3617538990961
 31
0.0
 11
141.3293294315126
 21
222.1905885373248
 31
0.0
 11
135.5729859557932
 21
218.7451123558453
 31
0.0
 11
130.4928261736977
 21
216.9174759925167
 31
0.0
  0
LINE
  5
13C7
100
AcDbEntity
  8
VHH-025
100
AcDbLine
 10
130.492826
 20
220.500004
 30
0.0
 11
130.492826
 21
208.000004
 31
0.0
  0
ARC
  5
13C8
100
AcDbEntity
  8
VHH-025
100
AcDbCircle
 10
131.242826
 20
207.000004
 30
0.0
 40
1.25
100
AcDbArc
 50
126.869898
 51
233.130103
  0
ARC
  5
13C9
100
AcDbEntity
  8
VHH-025
100
AcDbCircle
 10
129.492826
 20
203.500004
 30
0.0
 40
1.0
100
AcDbArc
 50
270.000001
 51
0.000001
  0
LINE
  5
13CA
100
AcDbEntity
  8
VHH-025
100
AcDbLine
 10
130.492826
 20
206.000004
 30
0.0
 11
130.492826
 21
203.500004
 31
0.0
  0
LINE
  5
13CB
100
AcDbEntity
  8
VHH-025
100
AcDbLine
 10
144.599673
 20
250.277601
 30
0.0
 11
144.162863
 21
250.275893
 31
0.0
  0
LINE
  5
13CC
100
AcDbEntity
  8
VHH-025
100
AcDbLine
 10
143.504966
 20
250.329031
 30
0.0
 11
140.840316
 21
247.304525
 31
0.0
  0
ARC
  5
13CD
100
AcDbEntity
  8
VHH-025
100
AcDbCircle
 10
138.365236
 20
223.500004
 30
0.0
 40
1.0
100
AcDbArc
 50
270.000001
 51
2.000001
  0
LINE
  5
13CE
100
AcDbEntity
  8
VHH-025
100
AcDbLine
 10
138.492826
 20
248.500004
 30
0.0
 11
139.364627
 21
223.534904
 31
0.0
  0
LINE
  5
13CF
100
AcDbEntity
  8
VHH-025
100
AcDbLine
 10
144.237018
 20
226.998421
 30
0.0
 11
144.237018
 21
249.670246
 31
0.0
  0
LINE
  5
13D0
100
AcDbEntity
  8
VHH-025
100
AcDbLine
 10
144.597833
 20
226.98505
 30
0.0
 11
144.597833
 21
249.670246
 31
0.0
  0
LINE
  5
13D1
100
AcDbEntity
  8
VHH-025
100
AcDbLine
 10
134.699438
 20
250.500004
 30
0.0
 11
135.875318
 21
250.500004
 31
0.0
  0
LINE
  5
13D2
100
AcDbEntity
  8
VHH-025
100
AcDbLine
 10
136.906864
 20
250.500004
 30
0.0
 11
137.643307
 21
250.500004
 31
0.0
  0
LINE
  5
13D3
100
AcDbEntity
  8
VHH-025
100
AcDbLine
 10
128.018181
 20
250.500004
 30
0.0
 11
129.828311
 21
250.500004
 31
0.0
  0
LINE
  5
13D4
100
AcDbEntity
  8
VHH-025
100
AcDbLine
 10
131.686874
 20
250.500004
 30
0.0
 11
133.228306
 21
250.500004
 31
0.0
  0
ARC
  5
13D5
100
AcDbEntity
  8
VHH-025
100
AcDbCircle
 10
132.492826
 20
220.500004
 30
0.0
 40
2.0
100
AcDbArc
 50
90.000001
 51
180.000001
  0
LINE
  5
13D6
100
AcDbEntity
  8
VHH-025
100
AcDbLine
 10
242.002856
 20
59.5
 30
0.0
 11
352.392825
 21
59.5
 31
0.0
  0
LINE
  5
13D7
100
AcDbEntity
  8
VHH-025
100
AcDbLine
 10
238.539385
 20
55.140004
 30
0.0
 11
352.389563
 21
55.140004
 31
0.0
  0
SPLINE
  5
13D8
100
AcDbEntity
  8
VHH-025
100
AcDbSpline
210
0.0
220
0.0
230
1.0
 70
     8
 71
     3
 72
    14
 73
    10
 74
     8
 42
0.0000001
 43
0.0000001
 44
0.0000000001
 40
0.0
 40
0.0
 40
0.0
 40
0.0
 40
1.042699229939734
 40
2.810159271199797
 40
5.132104488893749
 40
8.54541216354157
 40
14.83806452703994
 40
23.23839865586939
 40
26.59484554393276
 40
26.59484554393276
 40
26.59484554393276
 40
26.59484554393276
 10
246.5515336891921
 20
86.4168177538154
 30
0.0
 10
246.6947455445333
 20
86.09989191448915
 30
0.0
 10
247.0807131481116
 20
85.24575098861841
 30
0.0
 10
247.5326144237384
 20
83.58386258705404
 30
0.0
 10
247.7661411358672
 20
81.08944430745276
 30
0.0
 10
248.0384160157285
 20
77.09051834881707
 30
0.0
 10
248.1368622891759
 20
71.05280090567001
 30
0.0
 10
248.18345169677
 20
65.03749804162265
 30
0.0
 10
248.2034234774831
 20
61.11855248837159
 30
0.0
 10
248.2091252270629
 20
59.99973156385158
 30
0.0
 11
246.5515336891921
 21
86.4168177538154
 31
0.0
 11
246.962098131119
 21
85.45835099740589
 31
0.0
 11
247.4403022242704
 21
83.75681174051397
 31
0.0
 11
247.724191971939
 21
81.45228658223505
 31
0.0
 11
247.9525904882402
 21
78.04662902464634
 31
0.0
 11
248.1177058741768
 21
71.75614329799782
 31
0.0
 11
248.191174370283
 21
63.35613044943284
 31
0.0
 11
248.2091252270629
 21
59.99973156385158
 31
0.0
  0
LINE
  5
13D9
100
AcDbEntity
  8
VHH-025
100
AcDbLine
 10
243.93756
 20
81.931261
 30
0.0
 11
241.320441
 21
60.010978
 31
0.0
  0
SPLINE
  5
13DA
100
AcDbEntity
  8
VHH-025
100
AcDbSpline
210
0.0
220
0.0
230
1.0
 70
     8
 71
     3
 72
     9
 73
     5
 74
     3
 42
0.0000001
 43
0.0000001
 44
0.0000000001
 40
0.0
 40
0.0
 40
0.0
 40
0.0
 40
0.3652855011141922
 40
1.009075545627355
 40
1.009075545627355
 40
1.009075545627355
 40
1.009075545627355
 10
241.3204408366864
 20
60.01097831338075
 30
0.0
 10
241.3211959589269
 20
59.8740367369616
 30
0.0
 10
241.32328193109
 20
59.49574524846087
 30
0.0
 10
241.7381623827199
 20
59.49834277711413
 30
0.0
 10
242.0028560477085
 20
59.49999999999954
 30
0.0
 11
241.3204408366864
 21
60.01097831338075
 31
0.0
 11
241.3768004886669
 21
59.65006684646278
 31
0.0
 11
242.0028560477085
 21
59.49999999999954
 31
0.0
  0
LINE
  5
13DB
100
AcDbEntity
  8
VHH-025
100
AcDbLine
 10
242.29452
 20
59.5
 30
0.0
 11
242.29452
 21
57.5
 31
0.0
  0
ARC
  5
13DC
100
AcDbEntity
  8
VHH-025
100
AcDbCircle
 10
238.839034
 20
56.5
 30
0.0
 40
1.0
100
AcDbArc
 50
90.000004
 51
179.500001
  0
ARC
  5
13DD
100
AcDbEntity
  8
VHH-025
100
AcDbCircle
 10
235.940092
 20
56.5
 30
0.0
 40
1.0
100
AcDbArc
 50
0.499999
 51
89.999996
  0
SPLINE
  5
13DE
100
AcDbEntity
  8
VHH-025
100
AcDbSpline
210
0.0
220
0.0
230
1.0
 70
     8
 71
     3
 72
    13
 73
     9
 74
     7
 42
0.0000001
 43
0.0000001
 44
0.0000000001
 40
0.0
 40
0.0
 40
0.0
 40
0.0
 40
1.069269359765536
 40
2.131729584630608
 40
3.197797541177999
 40
4.26217533894207
 40
4.899079804344114
 40
5.532914177888079
 40
5.532914177888079
 40
5.532914177888079
 40
5.532914177888079
 10
246.2928251050789
 20
86.77974786632011
 30
0.0
 10
246.2708806044358
 20
86.42241739781468
 30
0.0
 10
246.2271313462965
 20
85.71003195045653
 30
0.0
 10
245.8734885933163
 20
84.6940412408524
 30
0.0
 10
245.3404693262113
 20
83.75805533196116
 30
0.0
 10
244.6770889677839
 20
83.11816281432987
 30
0.0
 10
244.1269111540081
 20
82.54691720436198
 30
0.0
 10
244.0005751601324
 20
82.13614872162363
 30
0.0
 10
243.9375597764201
 20
81.93126068645188
 30
0.0
 11
246.2928251050789
 21
86.77974786632011
 31
0.0
 11
246.1786850760081
 21
85.71658794537825
 31
0.0
 11
245.8440039535789
 21
84.70821783688142
 31
0.0
 11
245.3013631423682
 21
83.79058946003942
 31
0.0
 11
244.5773509071177
 21
83.01039308759163
 31
0.0
 11
244.1696629502339
 21
82.52106923996008
 31
0.0
 11
243.9375597764201
 21
81.93126068645188
 31
0.0
  0
SPLINE
  5
13DF
100
AcDbEntity
  8
VHH-025
100
AcDbSpline
210
0.0
220
0.0
230
1.0
 70
     8
 71
     3
 72
     9
 73
     5
 74
     3
 42
0.0000001
 43
0.0000001
 44
0.0000000001
 40
0.0
 40
0.0
 40
0.0
 40
0.0
 40
4.377888469770917
 40
8.000949851347465
 40
8.000949851347465
 40
8.000949851347465
 40
8.000949851347465
 10
369.2352448431311
 20
227.2398460238477
 30
0.0
 10
370.6922554285087
 20
227.1514715822617
 30
0.0
 10
373.355061643647
 20
226.9899600498979
 30
0.0
 10
376.0226123292496
 20
226.9854989530096
 30
0.0
 10
377.2305563923882
 20
226.9834788393786
 30
0.0
 11
369.2352448431311
 21
227.2398460238477
 31
0.0
 11
373.6076970757121
 21
227.0217430033503
 31
0.0
 11
377.2305563923882
 21
226.9834788393786
 31
0.0
  0
SPLINE
  5
13E0
100
AcDbEntity
  8
VHH-025
100
AcDbSpline
210
0.0
220
0.0
230
1.0
 70
     8
 71
     3
 72
    11
 73
     7
 74
     5
 42
0.0000001
 43
0.0000001
 44
0.0000000001
 40
0.0
 40
0.0
 40
0.0
 40
0.0
 40
3.507846858670609
 40
6.8749459898285
 40
13.583656471553
 40
18.98257100025055
 40
18.98257100025055
 40
18.98257100025055
 40
18.98257100025055
 10
376.2428351758362
 20
226.9751439848473
 30
0.0
 10
375.4891886821373
 20
226.0774717259159
 30
0.0
 10
374.0121347660588
 20
224.3181451231979
 30
0.0
 10
370.4944019152364
 20
221.4463472934984
 30
0.0
 10
366.0682508068482
 20
218.6942221434035
 30
0.0
 10
362.212253780245
 20
217.4654141265149
 30
0.0
 10
360.4928250440871
 20
216.9174759925167
 30
0.0
 11
376.2428351758362
 21
226.9751439848473
 31
0.0
 11
373.902924527204
 21
224.3617538990961
 31
0.0
 11
371.329328301902
 21
222.1905885373248
 31
0.0
 11
365.5729848261826
 21
218.7451123558453
 31
0.0
 11
360.4928250440871
 21
216.9174759925167
 31
0.0
  0
LINE
  5
13E1
100
AcDbEntity
  8
VHH-025
100
AcDbLine
 10
360.492825
 20
220.500004
 30
0.0
 11
360.492825
 21
208.000004
 31
0.0
  0
LINE
  5
13E2
100
AcDbEntity
  8
VHH-025
100
AcDbLine
 10
344.492825
 20
220.500004
 30
0.0
 11
344.492825
 21
208.000004
 31
0.0
  0
ARC
  5
13E3
100
AcDbEntity
  8
VHH-025
100
AcDbCircle
 10
361.242825
 20
207.000004
 30
0.0
 40
1.25
100
AcDbArc
 50
126.869898
 51
233.130103
  0
ARC
  5
13E4
100
AcDbEntity
  8
VHH-025
100
AcDbCircle
 10
359.492825
 20
203.500004
 30
0.0
 40
1.0
100
AcDbArc
 50
270.000001
 51
0.000001
  0
LINE
  5
13E5
100
AcDbEntity
  8
VHH-025
100
AcDbLine
 10
360.492825
 20
206.000004
 30
0.0
 11
360.492825
 21
203.500004
 31
0.0
  0
ARC
  5
13E6
100
AcDbEntity
  8
VHH-025
100
AcDbCircle
 10
343.742825
 20
207.000004
 30
0.0
 40
1.25
100
AcDbArc
 50
306.869898
 51
53.130103
  0
ARC
  5
13E7
100
AcDbEntity
  8
VHH-025
100
AcDbCircle
 10
345.492825
 20
203.500004
 30
0.0
 40
1.0
100
AcDbArc
 50
180.000001
 51
270.000001
  0
LINE
  5
13E8
100
AcDbEntity
  8
VHH-025
100
AcDbLine
 10
344.492825
 20
206.000004
 30
0.0
 11
344.492825
 21
203.500004
 31
0.0
  0
LINE
  5
13E9
100
AcDbEntity
  8
VHH-025
100
AcDbLine
 10
345.492825
 20
202.500004
 30
0.0
 11
359.492825
 21
202.500004
 31
0.0
  0
LINE
  5
13EA
100
AcDbEntity
  8
VHH-025
100
AcDbLine
 10
344.492825
 20
206.000004
 30
0.0
 11
360.492825
 21
206.000004
 31
0.0
  0
LINE
  5
13EB
100
AcDbEntity
  8
VHH-025
100
AcDbLine
 10
344.492825
 20
208.000004
 30
0.0
 11
360.492825
 21
208.000004
 31
0.0
  0
LINE
  5
13EC
100
AcDbEntity
  8
VHH-025
100
AcDbLine
 10
364.699437
 20
250.500004
 30
0.0
 11
365.875316
 21
250.500004
 31
0.0
  0
LINE
  5
13ED
100
AcDbEntity
  8
VHH-025
100
AcDbLine
 10
366.906863
 20
250.500004
 30
0.0
 11
367.643305
 21
250.500004
 31
0.0
  0
LINE
  5
13EE
100
AcDbEntity
  8
VHH-025
100
AcDbLine
 10
353.913228
 20
250.500004
 30
0.0
 11
355.878319
 21
250.500004
 31
0.0
  0
LINE
  5
13EF
100
AcDbEntity
  8
VHH-025
100
AcDbLine
 10
358.01818
 20
250.500004
 30
0.0
 11
359.82831
 21
250.500004
 31
0.0
  0
LINE
  5
13F0
100
AcDbEntity
  8
VHH-025
100
AcDbLine
 10
361.686873
 20
250.500004
 30
0.0
 11
363.228305
 21
250.500004
 31
0.0
  0
LINE
  5
13F1
100
AcDbEntity
  8
VHH-025
100
AcDbLine
 10
351.07242
 20
250.500004
 30
0.0
 11
349.107329
 21
250.500004
 31
0.0
  0
LINE
  5
13F2
100
AcDbEntity
  8
VHH-025
100
AcDbLine
 10
346.967469
 20
250.500004
 30
0.0
 11
345.157339
 21
250.500004
 31
0.0
  0
ARC
  5
13F3
100
AcDbEntity
  8
VHH-025
100
AcDbCircle
 10
362.492825
 20
220.500004
 30
0.0
 40
2.0
100
AcDbArc
 50
90.000001
 51
180.000001
  0
LINE
  5
13F4
100
AcDbEntity
  8
VHH-025
100
AcDbLine
 10
374.599672
 20
250.277601
 30
0.0
 11
374.162862
 21
250.275893
 31
0.0
  0
LINE
  5
13F5
100
AcDbEntity
  8
VHH-025
100
AcDbLine
 10
373.504965
 20
250.329031
 30
0.0
 11
370.840314
 21
247.304525
 31
0.0
  0
ARC
  5
13F6
100
AcDbEntity
  8
VHH-025
100
AcDbCircle
 10
368.365235
 20
223.500004
 30
0.0
 40
1.0
100
AcDbArc
 50
270.000001
 51
2.000001
  0
LINE
  5
13F7
100
AcDbEntity
  8
VHH-025
100
AcDbLine
 10
368.492825
 20
248.500004
 30
0.0
 11
369.364626
 21
223.534904
 31
0.0
  0
LINE
  5
13F8
100
AcDbEntity
  8
VHH-025
100
AcDbLine
 10
374.237017
 20
226.998421
 30
0.0
 11
374.237017
 21
249.670246
 31
0.0
  0
LINE
  5
13F9
100
AcDbEntity
  8
VHH-025
100
AcDbLine
 10
374.597831
 20
226.98505
 30
0.0
 11
374.597831
 21
249.670246
 31
0.0
  0
SPLINE
  5
13FA
100
AcDbEntity
  8
VHH-025
100
AcDbSpline
210
0.0
220
0.0
230
1.0
 70
     8
 71
     3
 72
     9
 73
     5
 74
     3
 42
0.0000001
 43
0.0000001
 44
0.0000000001
 40
0.0
 40
0.0
 40
0.0
 40
0.0
 40
4.377888469769101
 40
8.000949851345648
 40
8.000949851345648
 40
8.000949851345648
 40
8.000949851345648
 10
335.7504039888672
 20
227.2398460238477
 30
0.0
 10
334.2933934034902
 20
227.1514715822617
 30
0.0
 10
331.6305871883525
 20
226.9899600498979
 30
0.0
 10
328.9630365027504
 20
226.9854989530096
 30
0.0
 10
327.7550924396118
 20
226.9834788393786
 30
0.0
 11
335.7504039888672
 21
227.2398460238477
 31
0.0
 11
331.3779517562879
 21
227.0217430033503
 31
0.0
 11
327.7550924396118
 21
226.9834788393786
 31
0.0
  0
LINE
  5
13FB
100
AcDbEntity
  8
VHH-025
100
AcDbLine
 10
343.298776
 20
250.500004
 30
0.0
 11
341.757344
 21
250.500004
 31
0.0
  0
LINE
  5
13FC
100
AcDbEntity
  8
VHH-025
100
AcDbLine
 10
340.286212
 20
250.500004
 30
0.0
 11
339.110332
 21
250.500004
 31
0.0
  0
LINE
  5
13FD
100
AcDbEntity
  8
VHH-025
100
AcDbLine
 10
338.078786
 20
250.500004
 30
0.0
 11
337.342343
 21
250.500004
 31
0.0
  0
LINE
  5
13FE
100
AcDbEntity
  8
VHH-025
100
AcDbLine
 10
331.480684
 20
250.329031
 30
0.0
 11
334.145334
 21
247.304525
 31
0.0
  0
LINE
  5
13FF
100
AcDbEntity
  8
VHH-025
100
AcDbLine
 10
330.385977
 20
250.277601
 30
0.0
 11
330.822787
 21
250.275893
 31
0.0
  0
ARC
  5
1400
100
AcDbEntity
  8
VHH-025
100
AcDbCircle
 10
336.620415
 20
223.500004
 30
0.0
 40
1.0
100
AcDbArc
 50
178.000001
 51
270.000001
  0
LINE
  5
1401
100
AcDbEntity
  8
VHH-025
100
AcDbLine
 10
330.387817
 20
226.98505
 30
0.0
 11
330.387817
 21
249.670246
 31
0.0
  0
LINE
  5
1402
100
AcDbEntity
  8
VHH-025
100
AcDbLine
 10
336.492825
 20
248.500004
 30
0.0
 11
335.621025
 21
223.534903
 31
0.0
  0
LINE
  5
1403
100
AcDbEntity
  8
VHH-025
100
AcDbLine
 10
330.748632
 20
226.998421
 30
0.0
 11
330.748632
 21
249.670246
 31
0.0
  0
SPLINE
  5
1404
100
AcDbEntity
  8
VHH-025
100
AcDbSpline
210
0.0
220
0.0
230
1.0
 70
     8
 71
     3
 72
    11
 73
     7
 74
     5
 42
0.0000001
 43
0.0000001
 44
0.0000000001
 40
0.0
 40
0.0
 40
0.0
 40
0.0
 40
3.507846858670609
 40
6.8749459898285
 40
13.583656471553
 40
18.98257100025055
 40
18.98257100025055
 40
18.98257100025055
 40
18.98257100025055
 10
328.7428150299792
 20
226.9751439848473
 30
0.0
 10
329.496461523678
 20
226.0774717259159
 30
0.0
 10
330.9735154397567
 20
224.3181451231979
 30
0.0
 10
334.4912482905789
 20
221.4463472934984
 30
0.0
 10
338.9173993989672
 20
218.6942221434035
 30
0.0
 10
342.7733964255705
 20
217.4654141265149
 30
0.0
 10
344.4928251617284
 20
216.9174759925167
 30
0.0
 11
328.7428150299792
 21
226.9751439848473
 31
0.0
 11
331.0827256786115
 21
224.3617538990961
 31
0.0
 11
333.6563219039135
 21
222.1905885373248
 31
0.0
 11
339.4126653796329
 21
218.7451123558453
 31
0.0
 11
344.4928251617284
 21
216.9174759925167
 31
0.0
  0
LINE
  5
1405
100
AcDbEntity
  8
VHH-025
100
AcDbLine
 10
336.492824
 20
248.500004
 30
0.0
 11
368.492825
 21
248.500004
 31
0.0
  0
LINE
  5
1406
100
AcDbEntity
  8
VHH-025
100
AcDbLine
 10
368.365235
 20
222.500004
 30
0.0
 11
336.620415
 21
222.500004
 31
0.0
  0
ARC
  5
1407
100
AcDbEntity
  8
VHH-025
100
AcDbCircle
 10
342.492825
 20
220.500004
 30
0.0
 40
2.0
100
AcDbArc
 50
0.000001
 51
90.000001
  0
LINE
  5
1408
100
AcDbEntity
  8
VHH-025
100
AcDbLine
 10
115.961472
 20
308.100235
 30
0.0
 11
115.961472
 21
386.5
 31
0.0
  0
LINE
  5
1409
100
AcDbEntity
  8
VHH-025
100
AcDbLine
 10
129.02418
 20
308.100231
 30
0.0
 11
129.02418
 21
386.5
 31
0.0
  0
LWPOLYLINE
  5
140A
100
AcDbEntity
  8
VHH-025
100
AcDbPolyline
 90
       14
 70
     0
 43
0.0
 10
109.492826
 20
266.9147
 42
-0.236789
 10
109.628279
 20
267.184684
 42
0.124736
 10
110.557158
 20
268.32904
 42
0.224952
 10
110.410849
 20
284.786216
 42
-0.113339
 10
107.405598
 20
297.873749
 10
107.405598
 20
301.748943
 42
-0.301029
 10
110.453001
 20
306.351917
 42
-0.203332
 10
134.53265
 20
306.351917
 42
-0.301029
 10
137.580053
 20
301.748943
 10
137.580053
 20
297.873749
 42
-0.113339
 10
134.574802
 20
284.786216
 42
0.224952
 10
134.428493
 20
268.32904
 42
0.124736
 10
135.357372
 20
267.184684
 42
-0.236789
 10
135.492826
 20
266.9147
 42
-0.293728
  0
LINE
  5
140B
100
AcDbEntity
  8
VHH-025
100
AcDbLine
 10
107.576776
 20
258.800004
 30
0.0
 11
137.408875
 21
258.800004
 31
0.0
  0
LWPOLYLINE
  5
140C
100
AcDbEntity
  8
VHH-025
100
AcDbPolyline
 90
        5
 70
   128
 43
0.0
 10
126.643542
 20
265.871072
 42
0.106775
 10
124.550447
 20
268.14712
 42
0.154846
 10
122.492826
 20
268.800004
 42
0.154846
 10
120.435204
 20
268.14712
 42
0.096835
 10
118.492826
 20
266.116632
 42
0.073203
  0
LINE
  5
140D
100
AcDbEntity
  8
VHH-025
100
AcDbLine
 10
119.785199
 20
266.522747
 30
0.0
 11
125.200453
 21
266.522747
 31
0.0
  0
LINE
  5
140E
100
AcDbEntity
  8
VHH-025
100
AcDbLine
 10
109.492826
 20
266.9147
 30
0.0
 11
109.492826
 21
258.800004
 31
0.0
  0
ARC
  5
140F
100
AcDbEntity
  8
VHH-025
100
AcDbCircle
 10
107.576776
 20
258.050004
 30
0.0
 40
0.75
100
AcDbArc
 50
90.0
 51
178.0
  0
LWPOLYLINE
  5
1410
100
AcDbEntity
  8
VHH-025
100
AcDbPolyline
 90
        3
 70
   128
 43
0.0
 10
118.342109
 20
265.871072
 42
0.073203
 10
117.103506
 20
262.811483
 42
0.0597
 10
116.622826
 20
258.800004
 42
0.0597
  0
LWPOLYLINE
  5
1411
100
AcDbEntity
  8
VHH-025
100
AcDbPolyline
 90
        2
 70
   128
 43
0.0
 10
118.492826
 20
266.116632
 42
0.009838
 10
118.342109
 20
265.871072
 42
0.073203
  0
LINE
  5
1412
100
AcDbEntity
  8
VHH-025
100
AcDbLine
 10
118.492826
 20
266.116632
 30
0.0
 11
118.492826
 21
258.800004
 31
0.0
  0
LINE
  5
1413
100
AcDbEntity
  8
VHH-025
100
AcDbLine
 10
118.991857
 20
258.722236
 30
0.0
 11
118.991857
 21
265.745067
 31
0.0
  0
LINE
  5
1414
100
AcDbEntity
  8
VHH-025
100
AcDbLine
 10
118.991857
 20
265.745067
 30
0.0
 11
119.785199
 21
266.522747
 31
0.0
  0
LWPOLYLINE
  5
1415
100
AcDbEntity
  8
VHH-025
100
AcDbPolyline
 90
        3
 70
   128
 43
0.0
 10
128.362826
 20
258.800004
 42
0.0597
 10
127.882146
 20
262.811483
 42
0.073203
 10
126.643542
 20
265.871072
 42
0.106775
  0
LINE
  5
1416
100
AcDbEntity
  8
VHH-025
100
AcDbLine
 10
135.492826
 20
266.9147
 30
0.0
 11
135.492826
 21
258.800004
 31
0.0
  0
LINE
  5
1417
100
AcDbEntity
  8
VHH-025
100
AcDbLine
 10
126.492826
 20
266.116632
 30
0.0
 11
126.492826
 21
258.800004
 31
0.0
  0
LINE
  5
1418
100
AcDbEntity
  8
VHH-025
100
AcDbLine
 10
125.993794
 20
258.722236
 30
0.0
 11
125.993794
 21
265.745067
 31
0.0
  0
ARC
  5
1419
100
AcDbEntity
  8
VHH-025
100
AcDbCircle
 10
137.408875
 20
258.050004
 30
0.0
 40
0.75
100
AcDbArc
 50
2.0
 51
90.0
  0
LINE
  5
141A
100
AcDbEntity
  8
VHH-025
100
AcDbLine
 10
125.993794
 20
265.745067
 30
0.0
 11
125.200453
 21
266.522747
 31
0.0
  0
LWPOLYLINE
  5
141B
100
AcDbEntity
  8
VHH-025
100
AcDbPolyline
 90
        9
 70
   128
 43
0.0
 10
131.362826
 20
258.800004
 42
0.0597
 10
130.797215
 20
263.520263
 42
0.073203
 10
129.230741
 20
267.389757
 42
0.106775
 10
126.280108
 20
270.598298
 42
0.154846
 10
122.492826
 20
271.800004
 42
0.154846
 10
118.705543
 20
270.598298
 42
0.106775
 10
115.75491
 20
267.389757
 42
0.073203
 10
114.188436
 20
263.520263
 42
0.0597
 10
113.622826
 20
258.800004
 42
0.0597
  0
LINE
  5
141C
100
AcDbEntity
  8
VHH-025
100
AcDbLine
 10
145.915078
 20
387.500032
 30
0.0
 11
233.616805
 21
387.499983
 31
0.0
  0
LINE
  5
141D
100
AcDbEntity
  8
VHH-025
100
AcDbLine
 10
232.556246
 20
386.5
 30
0.0
 11
145.948152
 21
386.5
 31
0.0
  0
LINE
  5
141E
100
AcDbEntity
  8
VHH-025
100
AcDbLine
 10
145.676243
 20
395.674345
 30
0.0
 11
226.757203
 21
395.604646
 31
0.0
  0
LINE
  5
141F
100
AcDbEntity
  8
VHH-025
100
AcDbLine
 10
229.801071
 20
397.499982
 30
0.0
 11
145.753511
 21
397.500035
 31
0.0
  0
LWPOLYLINE
  5
1420
100
AcDbEntity
  8
VHH-025
100
AcDbPolyline
 90
       10
 70
     0
 43
0.0
 10
90.073831
 20
435.042903
 10
96.243818
 20
435.042861
 10
102.966383
 20
435.0427
 10
112.160773
 20
435.042483
 10
121.690842
 20
435.042378
 10
129.018468
 20
435.042423
 10
136.194729
 20
435.042556
 10
141.965924
 20
435.042705
 10
147.49757
 20
435.042841
 10
154.772426
 20
435.042905
  0
LINE
  5
1421
100
AcDbEntity
  8
VHH-025
100
AcDbLine
 10
173.890123
 20
427.330385
 30
0.0
 11
70.89553
 21
427.330385
 31
0.0
  0
LINE
  5
1422
100
AcDbEntity
  8
VHH-025
100
AcDbLine
 10
175.530758
 20
429.519382
 30
0.0
 11
69.254895
 21
429.519382
 31
0.0
  0
SPLINE
  5
1423
100
AcDbEntity
  8
VHH-025
100
AcDbSpline
210
0.0
220
0.0
230
-1.0
 70
     8
 71
     3
 72
    11
 73
     7
 74
     5
 42
0.0000001
 43
0.0000001
 44
0.0000000001
 40
0.0
 40
0.0
 40
0.0
 40
0.0
 40
0.568037194633695
 40
1.463279599702922
 40
2.456250895123692
 40
4.878568014843552
 40
4.878568014843552
 40
4.878568014843552
 40
4.878568014843552
 10
148.1456754607506
 20
399.721138345762
 30
0.0
 10
148.1496891831852
 20
399.9093668388411
 30
0.0
 10
148.1600286437221
 20
400.3942486680726
 30
0.0
 10
147.7451951257067
 20
401.2384783989694
 30
0.0
 10
146.1895634050374
 20
401.3392451567335
 30
0.0
 10
145.0851070204012
 20
401.4344695822712
 30
0.0
 10
144.3017636293634
 20
401.5020081699853
 30
0.0
 11
148.1456754607506
 21
399.721138345762
 31
0.0
 11
148.1189170074985
 21
400.2885449369
 31
0.0
 11
147.6802044890582
 21
401.0689232361869
 31
0.0
 11
146.7162291063332
 21
401.307132083692
 31
0.0
 11
144.3017636293634
 21
401.5020081699853
 31
0.0
  0
LINE
  5
1424
100
AcDbEntity
  8
VHH-025
100
AcDbLine
 10
144.126056
 20
401.500191
 30
0.0
 11
169.014591
 21
401.500157
 31
0.0
  0
LINE
  5
1425
100
AcDbEntity
  8
VHH-025
100
AcDbLine
 10
126.827951
 20
419.032054
 30
0.0
 11
173.890123
 21
427.330385
 31
0.0
  0
SPLINE
  5
1426
100
AcDbEntity
  8
VHH-025
100
AcDbSpline
210
0.0
220
0.0
230
1.0
 70
     8
 71
     3
 72
    11
 73
     7
 74
     5
 42
0.0000001
 43
0.0000001
 44
0.0000000001
 40
0.0
 40
0.0
 40
0.0
 40
0.0
 40
1.000366720787654
 40
4.132811894237304
 40
8.265836390237563
 40
11.00558801193088
 40
11.00558801193088
 40
11.00558801193088
 40
11.00558801193088
 10
98.8447163667779
 20
386.4999999425831
 30
0.0
 10
98.85319883676283
 20
386.8333536056431
 30
0.0
 10
98.88824243839188
 20
388.210536547712
 30
0.0
 10
98.97236212609819
 20
390.9639993428753
 30
0.0
 10
99.16984549374632
 20
394.2971764363541
 30
0.0
 10
99.07139011064515
 20
396.5871596121552
 30
0.0
 10
99.03214202647996
 20
397.5000345570265
 30
0.0
 11
98.8447163667779
 21
386.4999999425831
 31
0.0
 11
98.87057479847953
 21
387.500032400841
 31
0.0
 11
98.9750921524037
 21
390.6307334225607
 31
0.0
 11
99.1126832078071
 21
394.7614670360985
 31
0.0
 11
99.03214202647996
 21
397.5000345570265
 31
0.0
  0
LINE
  5
1427
100
AcDbEntity
  8
VHH-025
100
AcDbLine
 10
100.269879
 20
386.5
 30
0.0
 11
100.892588
 21
400.511953
 31
0.0
  0
LINE
  5
1428
100
AcDbEntity
  8
VHH-025
100
AcDbLine
 10
117.530987
 20
386.5
 30
0.0
 11
117.907391
 21
401.962593
 31
0.0
  0
SPLINE
  5
1429
100
AcDbEntity
  8
VHH-025
100
AcDbSpline
210
0.0
220
0.0
230
-1.0
 70
     8
 71
     3
 72
    11
 73
     7
 74
     5
 42
0.0000001
 43
0.0000001
 44
0.0000000001
 40
0.0
 40
0.0
 40
0.0
 40
0.0
 40
1.000366720787654
 40
4.132811894237304
 40
8.265836390237502
 40
11.00558801193081
 40
11.00558801193081
 40
11.00558801193081
 40
11.00558801193081
 10
146.1337208133891
 20
386.4999999425831
 30
0.0
 10
146.1252383434041
 20
386.8333536056431
 30
0.0
 10
146.0901947417752
 20
388.210536547712
 30
0.0
 10
146.0060750540683
 20
390.9639993428754
 30
0.0
 10
145.8085916864229
 20
394.2971764363541
 30
0.0
 10
145.9070470695237
 20
396.5871596121552
 30
0.0
 10
145.9462951536888
 20
397.5000345570265
 30
0.0
 11
146.1337208133891
 21
386.4999999425831
 31
0.0
 11
146.1078623816874
 21
387.500032400841
 31
0.0
 11
146.0033450277633
 21
390.6307334225607
 31
0.0
 11
145.8657539723617
 21
394.7614670360985
 31
0.0
 11
145.9462951536888
 21
397.5000345570265
 31
0.0
  0
LINE
  5
142A
100
AcDbEntity
  8
VHH-025
100
AcDbLine
 10
144.708558
 20
386.5
 30
0.0
 11
144.085849
 21
400.511953
 31
0.0
  0
LINE
  5
142B
100
AcDbEntity
  8
VHH-025
100
AcDbLine
 10
127.44745
 20
386.5
 30
0.0
 11
127.071046
 21
401.962593
 31
0.0
  0
LINE
  5
142C
100
AcDbEntity
  8
VHH-025
100
AcDbLine
 10
98.837501
 20
386.5
 30
0.0
 11
146.140936
 21
386.5
 31
0.0
  0
LINE
  5
142D
100
AcDbEntity
  8
VHH-025
100
AcDbLine
 10
131.392826
 20
452.471954
 30
0.0
 11
113.392826
 21
452.471954
 31
0.0
  0
SPLINE
  5
142E
100
AcDbEntity
  8
VHH-025
100
AcDbSpline
210
0.0
220
0.0
230
-1.0
 70
     8
 71
     3
 72
    13
 73
     9
 74
     0
 42
0.0000001
 43
0.0000001
 40
0.0209144496635199
 40
0.0209144496635199
 40
0.0209144496635199
 40
0.0209144496635199
 40
3.296463989968982
 40
8.729114775329056
 40
13.2640661055983
 40
17.20111388624939
 40
20.55573193448323
 40
21.91587199566444
 40
21.91587199566444
 40
21.91587199566444
 40
21.91587199566444
 10
122.4892185900853
 20
403.0670801867676
 30
0.0
 10
123.5807305933676
 20
403.0389388192593
 30
0.0
 10
126.4825578284717
 20
402.9638813566402
 30
0.0
 10
130.89044379198
 20
402.6953103872688
 30
0.0
 10
135.5038724937667
 20
402.2480066770927
 30
0.0
 10
139.4340391495634
 20
401.9386171315586
 30
0.0
 10
142.3056313417373
 20
401.6715865250894
 30
0.0
 10
143.8715799156861
 20
401.5385657952324
 30
0.0
 10
144.3233336090352
 20
401.5001912234197
 30
0.0
  0
SPLINE
  5
142F
100
AcDbEntity
  8
VHH-025
100
AcDbSpline
210
0.0
220
0.0
230
-1.0
 70
     8
 71
     3
 72
    10
 73
     6
 74
     0
 42
0.0000001
 43
0.0000001
 40
0.0
 40
0.0
 40
0.0
 40
0.0
 40
1.375284005263003
 40
2.605605434342426
 40
3.964137258047949
 40
3.964137258047949
 40
3.964137258047949
 40
3.964137258047949
 10
126.4522256593418
 20
402.0214570949097
 30
0.0
 10
125.9940527349199
 20
402.0365111812529
 30
0.0
 10
125.1260008582366
 20
402.0650325695892
 30
0.0
 10
123.8050363243883
 20
402.1024993161868
 30
0.0
 10
122.9420869256691
 20
402.1026516535589
 30
0.0
 10
122.4892185900835
 20
402.1004469203685
 30
0.0
  0
LINE
  5
1430
100
AcDbEntity
  8
VHH-025
100
AcDbLine
 10
125.992826
 20
418.3
 30
0.0
 11
118.792826
 21
418.3
 31
0.0
  0
SPLINE
  5
1431
100
AcDbEntity
  8
VHH-025
100
AcDbSpline
210
0.0
220
0.0
230
-1.0
 70
     8
 71
     3
 72
    12
 73
     8
 74
     6
 42
0.0000001
 43
0.0000001
 44
0.0000000001
 40
0.0
 40
0.0
 40
0.0
 40
0.0
 40
2.818436467645279
 40
7.776658894824089
 40
10.89635099231008
 40
14.08080739443995
 40
16.8382136326045
 40
16.8382136326045
 40
16.8382136326045
 40
16.8382136326045
 10
101.7542921028734
 20
400.5504793369905
 30
0.0
 10
102.688565149831
 20
400.649246576885
 30
0.0
 10
105.2664209518769
 20
400.9217661612221
 30
0.0
 10
108.8792894312743
 20
401.2951948630838
 30
0.0
 10
112.6188420661725
 20
401.6292885001962
 30
0.0
 10
115.633761146061
 20
401.8159050580863
 30
0.0
 10
117.6093918640945
 20
401.9563032898575
 30
0.0
 10
118.5262115208252
 20
402.0214570949097
 30
0.0
 11
101.7542921028734
 21
400.5504793369905
 31
0.0
 11
104.5571935057187
 21
400.8459921930239
 31
0.0
 11
109.4903237847183
 21
401.3441842120242
 31
0.0
 11
112.598381184719
 21
401.6133644145233
 31
0.0
 11
115.7754685687532
 21
401.8298784585872
 31
0.0
 11
118.5262115208252
 21
402.0214570949097
 31
0.0
  0
SPLINE
  5
1432
100
AcDbEntity
  8
VHH-025
100
AcDbSpline
210
0.0
220
0.0
230
-1.0
 70
     8
 71
     3
 72
    13
 73
     9
 74
     0
 42
0.0000001
 43
0.0000001
 40
0.0209144496635199
 40
0.0209144496635199
 40
0.0209144496635199
 40
0.0209144496635199
 40
3.296463989968982
 40
8.729114775329056
 40
13.2640661055983
 40
17.20111388624939
 40
20.55573193448323
 40
21.91587199566444
 40
21.91587199566444
 40
21.91587199566444
 40
21.91587199566444
 10
122.4892185900835
 20
403.0670801867676
 30
0.0
 10
121.3977065868011
 20
403.0389388192593
 30
0.0
 10
118.4958793516952
 20
402.9638813566402
 30
0.0
 10
114.0879933881888
 20
402.6953103872688
 30
0.0
 10
109.4745646864003
 20
402.2480066770927
 30
0.0
 10
105.5443980306054
 20
401.9386171315586
 30
0.0
 10
102.6728058384296
 20
401.6715865250894
 30
0.0
 10
101.1068572644826
 20
401.5385657952324
 30
0.0
 10
100.6551035711336
 20
401.5001912234197
 30
0.0
  0
ELLIPSE
  5
1433
100
AcDbEntity
  8
VHH-025
100
AcDbEllipse
 10
89.462276
 20
435.152594
 30
0.0
 11
-0.0000055313271815
 21
0.9999999999763709
 31
0.0
210
0.0
220
0.0
230
1.0
 40
0.615267
 41
4.602473364330868
 42
5.206673556376944
  0
SPLINE
  5
1434
100
AcDbEntity
  8
VHH-025
100
AcDbSpline
210
0.0
220
0.0
230
-1.0
 70
     8
 71
     3
 72
    11
 73
     7
 74
     5
 42
0.0000001
 43
0.0000001
 44
0.0000000001
 40
0.0
 40
0.0
 40
0.0
 40
0.0
 40
0.5680371946337807
 40
1.463279599702116
 40
2.456250895122886
 40
4.878568014842747
 40
4.878568014842747
 40
4.878568014842747
 40
4.878568014842747
 10
96.83276171941635
 20
399.721138345762
 30
0.0
 10
96.82874799698257
 20
399.909366838841
 30
0.0
 10
96.81840853644779
 20
400.394248668072
 30
0.0
 10
97.23324205445969
 20
401.2384783989698
 30
0.0
 10
98.78887377513024
 20
401.3392451567333
 30
0.0
 10
99.89333015976608
 20
401.4344695822711
 30
0.0
 10
100.6766735508035
 20
401.5020081699853
 30
0.0
 11
96.83276171941635
 21
399.721138345762
 31
0.0
 11
96.85952017267027
 21
400.2885449369
 31
0.0
 11
97.29823269110875
 21
401.0689232361869
 31
0.0
 11
98.26220807383378
 21
401.307132083692
 31
0.0
 11
100.6766735508035
 21
401.5020081699853
 31
0.0
  0
LINE
  5
1435
100
AcDbEntity
  8
VHH-025
100
AcDbLine
 10
100.892588
 20
400.511953
 30
0.0
 11
99.183239
 21
400.451988
 31
0.0
  0
LINE
  5
1436
100
AcDbEntity
  8
VHH-025
100
AcDbLine
 10
96.805935
 20
397.5
 30
0.0
 11
96.832762
 21
399.721138
 31
0.0
  0
SPLINE
  5
1437
100
AcDbEntity
  8
VHH-025
100
AcDbSpline
210
0.0
220
0.0
230
-1.0
 70
     8
 71
     3
 72
    10
 73
     6
 74
     4
 42
0.0000001
 43
0.0000001
 44
0.0000000001
 40
0.0
 40
0.0
 40
0.0
 40
0.0
 40
0.7389541528466666
 40
1.053804214991007
 40
1.581800210478341
 40
1.581800210478341
 40
1.581800210478341
 40
1.581800210478341
 10
119.5563464644537
 20
402.98232403893
 30
0.0
 10
119.2912241878722
 20
402.9627279298446
 30
0.0
 10
118.9131398757759
 20
402.9347824040333
 30
0.0
 10
118.5981269936733
 20
402.4757889991721
 30
0.0
 10
118.5539106139417
 20
402.1964483898782
 30
0.0
 10
118.5262115208252
 20
402.0214570949097
 30
0.0
 11
119.5563464644537
 21
402.98232403893
 31
0.0
 11
118.8436967192892
 21
402.786917844744
 31
0.0
 11
118.6578271711705
 21
402.53278584614
 31
0.0
 11
118.5262115208252
 21
402.0214570949097
 31
0.0
  0
SPLINE
  5
1438
100
AcDbEntity
  8
VHH-025
100
AcDbSpline
210
0.0
220
0.0
230
-1.0
 70
     8
 71
     3
 72
    10
 73
     6
 74
     0
 42
0.0000001
 43
0.0000001
 40
0.0
 40
0.0
 40
0.0
 40
0.0
 40
1.375284005263003
 40
2.605605434342426
 40
3.964137258047949
 40
3.964137258047949
 40
3.964137258047949
 40
3.964137258047949
 10
118.5262115208252
 20
402.0214570949097
 30
0.0
 10
118.984384445247
 20
402.0365111812529
 30
0.0
 10
119.8524363219321
 20
402.0650325695892
 30
0.0
 10
121.1734008557805
 20
402.1024993161868
 30
0.0
 10
122.0363502544996
 20
402.1026516535589
 30
0.0
 10
122.4892185900835
 20
402.1004469203685
 30
0.0
  0
ARC
  5
1439
100
AcDbEntity
  8
VHH-025
100
AcDbCircle
 10
117.784053
 20
418.047246
 30
0.0
 40
1.0
100
AcDbArc
 50
30.0
 51
80.0
  0
LINE
  5
143A
100
AcDbEntity
  8
VHH-025
100
AcDbLine
 10
118.792826
 20
418.3
 30
0.0
 11
118.650079
 21
418.547246
 31
0.0
  0
LWPOLYLINE
  5
143B
100
AcDbEntity
  8
VHH-025
100
AcDbPolyline
 90
        6
 70
     0
 43
0.0
 10
69.864478
 20
435.042378
 10
70.331946
 20
435.042428
 10
71.710074
 20
435.042556
 10
73.648262
 20
435.042705
 10
76.251928
 20
435.042841
 10
81.031112
 20
435.042905
  0
LWPOLYLINE
  5
143C
100
AcDbEntity
  8
VHH-025
100
AcDbPolyline
 90
        3
 70
     0
 43
0.0
 10
69.864396
 20
435.042378
 10
69.851535
 20
435.345546
 10
69.748337
 20
435.6309
  0
ELLIPSE
  5
143D
100
AcDbEntity
  8
VHH-025
100
AcDbEllipse
 10
80.248447
 20
435.152596
 30
0.0
 11
0.0000044791293391
 21
0.9999999999706712
 31
0.0
210
0.0
220
0.0
230
1.0
 40
0.787417
 41
4.602480294514935
 42
5.206678977368046
  0
ARC
  5
143E
100
AcDbEntity
  8
VHH-025
100
AcDbCircle
 10
71.242826
 20
429.3
 30
0.0
 40
2.0
100
AcDbArc
 50
173.702494
 51
260.0
  0
LINE
  5
143F
100
AcDbEntity
  8
VHH-025
100
AcDbLine
 10
69.864396
 20
435.042378
 30
0.0
 11
69.254895
 21
429.519382
 31
0.0
  0
LINE
  5
1440
100
AcDbEntity
  8
VHH-025
100
AcDbLine
 10
117.957702
 20
419.032054
 30
0.0
 11
70.89553
 21
427.330385
 31
0.0
  0
LWPOLYLINE
  5
1441
100
AcDbEntity
  8
VHH-025
100
AcDbPolyline
 90
        6
 70
     0
 43
0.0
 10
81.031112
 20
435.042905
 10
81.930627
 20
435.042892
 10
84.871358
 20
435.04286
 10
87.133178
 20
435.042869
 10
88.826964
 20
435.042889
 10
90.073831
 20
435.042903
  0
SPLINE
  5
1442
100
AcDbEntity
  8
VHH-025
100
AcDbSpline
210
0.0
220
0.0
230
-1.0
 70
     8
 71
     3
 72
    10
 73
     6
 74
     4
 42
0.0000001
 43
0.0000001
 44
0.0000000001
 40
0.0
 40
0.0
 40
0.0
 40
0.0
 40
0.7389541528466666
 40
1.053804214992081
 40
1.581800210478961
 40
1.581800210478961
 40
1.581800210478961
 40
1.581800210478961
 10
125.4220907157132
 20
402.98232403893
 30
0.0
 10
125.6872129922943
 20
402.9627279298443
 30
0.0
 10
126.0652973043902
 20
402.9347824040326
 30
0.0
 10
126.3803101864961
 20
402.475788999173
 30
0.0
 10
126.4245265662262
 20
402.1964483898784
 30
0.0
 10
126.4522256593418
 20
402.0214570949097
 30
0.0
 11
125.4220907157132
 21
402.98232403893
 31
0.0
 11
126.1347404608777
 21
402.786917844744
 31
0.0
 11
126.3206100089983
 21
402.53278584614
 31
0.0
 11
126.4522256593418
 21
402.0214570949097
 31
0.0
  0
SPLINE
  5
1443
100
AcDbEntity
  8
VHH-025
100
AcDbSpline
210
0.0
220
0.0
230
-1.0
 70
     8
 71
     3
 72
    12
 73
     8
 74
     6
 42
0.0000001
 43
0.0000001
 44
0.0000000001
 40
0.0
 40
0.0
 40
0.0
 40
0.0
 40
2.81843646764347
 40
7.77665889482409
 40
10.89635099230827
 40
14.08080739443996
 40
16.8382136326045
 40
16.8382136326045
 40
16.8382136326045
 40
16.8382136326045
 10
143.2241450772935
 20
400.5504793369905
 30
0.0
 10
142.2898720303365
 20
400.649246576885
 30
0.0
 10
139.7120162282906
 20
400.9217661612224
 30
0.0
 10
136.0991477488938
 20
401.2951948630837
 30
0.0
 10
132.3595951139951
 20
401.6292885001964
 30
0.0
 10
129.3446760341065
 20
401.8159050580861
 30
0.0
 10
127.3690453160724
 20
401.9563032898574
 30
0.0
 10
126.4522256593418
 20
402.0214570949097
 30
0.0
 11
143.2241450772935
 21
400.5504793369905
 31
0.0
 11
140.4212436744501
 21
400.8459921930239
 31
0.0
 11
135.4881133954486
 21
401.3441842120242
 31
0.0
 11
132.3800559954497
 21
401.6133644145233
 31
0.0
 11
129.2029686114137
 21
401.8298784585872
 31
0.0
 11
126.4522256593418
 21
402.0214570949097
 31
0.0
  0
LINE
  5
1444
100
AcDbEntity
  8
VHH-025
100
AcDbLine
 10
144.085849
 20
400.511953
 30
0.0
 11
145.795198
 21
400.451988
 31
0.0
  0
ARC
  5
1445
100
AcDbEntity
  8
VHH-025
100
AcDbCircle
 10
127.001599
 20
418.047246
 30
0.0
 40
1.0
100
AcDbArc
 50
100.0
 51
150.0
  0
LINE
  5
1446
100
AcDbEntity
  8
VHH-025
100
AcDbLine
 10
125.992826
 20
418.3
 30
0.0
 11
126.135574
 21
418.547246
 31
0.0
  0
LINE
  5
1447
100
AcDbEntity
  8
VHH-025
100
AcDbLine
 10
233.616805
 20
387.499983
 30
0.0
 11
232.563158
 21
395.883767
 31
0.0
  0
LINE
  5
1448
100
AcDbEntity
  8
VHH-025
100
AcDbLine
 10
222.643675
 20
387.499927
 30
0.0
 11
222.25934
 21
395.6046
 31
0.0
  0
LINE
  5
1449
100
AcDbEntity
  8
VHH-025
100
AcDbLine
 10
227.099618
 20
387.499986
 30
0.0
 11
226.757203
 21
395.604646
 31
0.0
  0
SPLINE
  5
144A
100
AcDbEntity
  8
VHH-025
100
AcDbSpline
210
0.0
220
0.0
230
1.0
 70
     8
 71
     3
 72
     9
 73
     5
 74
     3
 42
0.0000001
 43
0.0000001
 44
0.0000000001
 40
0.0
 40
0.0
 40
0.0
 40
0.0
 40
0.9804242998629113
 40
1.248549817030965
 40
1.248549817030965
 40
1.248549817030965
 40
1.248549817030965
 10
232.5562462727548
 20
386.4999999999995
 30
0.0
 10
233.0115148789916
 20
386.5120388846581
 30
0.0
 10
233.5912899162857
 20
386.5273701521918
 30
0.0
 10
233.4941186854589
 20
386.0809973494736
 30
0.0
 10
233.473251206914
 20
385.9851389888813
 30
0.0
 11
232.5562462727548
 21
386.4999999999995
 31
0.0
 11
233.5046346602039
 21
386.2514214926554
 31
0.0
 11
233.473251206914
 21
385.9851389888813
 31
0.0
  0
LINE
  5
144B
100
AcDbEntity
  8
VHH-025
100
AcDbLine
 10
231.394687
 20
387.499973
 30
0.0
 11
231.482317
 21
386.5
 31
0.0
  0
SPLINE
  5
144C
100
AcDbEntity
  8
VHH-025
100
AcDbSpline
210
0.0
220
0.0
230
-1.0
 70
     8
 71
     3
 72
    14
 73
    10
 74
     8
 42
0.0000001
 43
0.0000001
 44
0.0000000001
 40
0.0
 40
0.0
 40
0.0
 40
0.0
 40
0.2762442808524049
 40
0.5524885617056455
 40
1.103680952616389
 40
2.766577242774674
 40
3.871679079314476
 40
4.976969695298992
 40
5.504499993160161
 40
5.504499993160161
 40
5.504499993160161
 40
5.504499993160161
 10
230.9863401319371
 20
372.6328991834266
 30
0.0
 10
230.9430995938654
 20
372.5517775726237
 30
0.0
 10
230.8566185177219
 20
372.3895343510179
 30
0.0
 10
230.7064361394302
 20
372.0493763341207
 30
0.0
 10
230.0623910817958
 20
371.4988278861998
 30
0.0
 10
229.3256168942015
 20
370.6692289969799
 30
0.0
 10
228.749028992958
 20
369.4935171501903
 30
0.0
 10
228.5870746567462
 20
368.5903837407949
 30
0.0
 10
228.4938224564688
 20
368.0545153142652
 30
0.0
 10
228.4636946202981
 20
367.8813874297161
 30
0.0
 11
230.9863401319371
 21
372.6328991834266
 31
0.0
 11
230.8594439425642
 21
372.3875254688068
 31
0.0
 11
230.7325477531894
 21
372.1421517541871
 31
0.0
 11
230.3549259971432
 21
371.7406360494401
 31
0.0
 11
229.2748391645937
 21
370.4762640685835
 31
0.0
 11
228.798622398569
 21
369.4790340746099
 31
0.0
 11
228.5544260128162
 21
368.401056583672
 31
0.0
 11
228.4636946202981
 21
367.8813874297161
 31
0.0
  0
SPLINE
  5
144D
100
AcDbEntity
  8
VHH-025
100
AcDbSpline
210
0.0
220
0.0
230
-1.0
 70
     8
 71
     3
 72
    14
 73
    10
 74
     8
 42
0.0000001
 43
0.0000001
 44
0.0000000001
 40
0.0
 40
0.0
 40
0.0
 40
0.0
 40
3.191871827524154
 40
5.335857413240221
 40
8.376690508344552
 40
10.96293588672734
 40
13.24458335793563
 40
15.17453521347432
 40
16.06516229607342
 40
16.06516229607342
 40
16.06516229607342
 40
16.06516229607342
 10
226.9703238323973
 20
386.0001236641569
 30
0.0
 10
226.9718826680727
 20
384.9361692513909
 30
0.0
 10
226.9744885762495
 20
383.1575548998518
 30
0.0
 10
226.9958859902263
 20
380.3653456421144
 30
0.0
 10
227.0478376288477
 20
377.7755671926191
 30
0.0
 10
227.1395338334742
 20
375.140282660772
 30
0.0
 10
227.2715176283979
 20
372.8793974753945
 30
0.0
 10
227.4165308568832
 20
371.1808284724764
 30
0.0
 10
227.6110167578182
 20
370.2604699642569
 30
0.0
 10
227.6724277001658
 20
369.9698572102447
 30
0.0
 11
226.9703238323973
 21
386.0001236641569
 31
0.0
 11
226.9789451103597
 21
382.8082634797333
 31
0.0
 11
226.9972573623645
 21
380.6643560999278
 31
0.0
 11
227.0589434238218
 21
377.6241487481006
 31
0.0
 11
227.1538120917566
 21
375.0396439419432
 31
0.0
 11
227.2894782412813
 21
372.762033378492
 31
0.0
 11
227.499593169995
 21
370.8435532817934
 31
0.0
 11
227.6724277001658
 21
369.9698572102447
 31
0.0
  0
LINE
  5
144E
100
AcDbEntity
  8
VHH-025
100
AcDbLine
 10
233.473251
 20
385.985139
 30
0.0
 11
230.98634
 21
372.632899
 31
0.0
  0
LINE
  5
144F
100
AcDbEntity
  8
VHH-025
100
AcDbLine
 10
209.7379
 20
401.500102
 30
0.0
 11
219.290115
 21
401.500089
 31
0.0
  0
LINE
  5
1450
100
AcDbEntity
  8
VHH-025
100
AcDbLine
 10
164.021822
 20
397.701549
 30
0.0
 11
214.722144
 21
397.701626
 31
0.0
  0
LINE
  5
1451
100
AcDbEntity
  8
VHH-025
100
AcDbLine
 10
213.682824
 20
399.097453
 30
0.0
 11
165.061137
 21
399.097379
 31
0.0
  0
LINE
  5
1452
100
AcDbEntity
  8
VHH-025
100
AcDbLine
 10
166.17581
 20
399.500164
 30
0.0
 11
212.605005
 21
399.500235
 31
0.0
  0
ARC
  5
1453
100
AcDbEntity
  8
VHH-025
100
AcDbCircle
 10
189.380107
 20
363.927007
 30
0.0
 40
43.0
100
AcDbArc
 50
63.262545
 51
84.540298
  0
LWPOLYLINE
  5
1454
100
AcDbEntity
  8
VHH-025
100
AcDbPolyline
 90
        3
 70
     0
 43
0.0
 10
175.037316
 20
435.6309
 10
174.934118
 20
435.345546
 10
174.921257
 20
435.042378
  0
LINE
  5
1455
100
AcDbEntity
  8
VHH-025
100
AcDbLine
 10
193.471369
 20
406.731932
 30
0.0
 11
189.376224
 21
406.731932
 31
0.0
  0
ARC
  5
1456
100
AcDbEntity
  8
VHH-025
100
AcDbCircle
 10
189.37234
 20
363.927007
 30
0.0
 40
43.0
100
AcDbArc
 50
95.459702
 51
116.737455
  0
LINE
  5
1457
100
AcDbEntity
  8
VHH-025
100
AcDbLine
 10
185.281078
 20
406.731932
 30
0.0
 11
189.376224
 21
406.731932
 31
0.0
  0
LINE
  5
1458
100
AcDbEntity
  8
VHH-025
100
AcDbLine
 10
174.921257
 20
435.042378
 30
0.0
 11
175.530758
 21
429.519382
 31
0.0
  0
ARC
  5
1459
100
AcDbEntity
  8
VHH-025
100
AcDbCircle
 10
173.542826
 20
429.3
 30
0.0
 40
2.0
100
AcDbArc
 50
280.0
 51
6.297506
  0
ARC
  5
145A
100
AcDbEntity
  8
VHH-025
100
AcDbCircle
 10
207.376224
 20
399.650106
 30
0.0
 40
3.0
100
AcDbArc
 50
0.0
 51
63.262545
  0
SPLINE
  5
145B
100
AcDbEntity
  8
VHH-025
100
AcDbSpline
210
0.0
220
0.0
230
-1.0
 70
     8
 71
     3
 72
    12
 73
     8
 74
     6
 42
0.0000001
 43
0.0000001
 44
0.0000000001
 40
0.0
 40
0.0
 40
0.0
 40
0.0
 40
0.5183577417995328
 40
0.8374683632360358
 40
1.411464127918153
 40
2.281595754332861
 40
3.151727380755593
 40
3.151727380755593
 40
3.151727380755593
 40
3.151727380755593
 10
166.3615976209339
 20
399.5001655304863
 30
0.0
 10
166.188263678136
 20
399.5103777604086
 30
0.0
 10
165.9082221514787
 20
399.5268768281149
 30
0.0
 10
165.4434747829528
 20
399.4190093208763
 30
0.0
 10
164.9555302038298
 20
399.0546962122113
 30
0.0
 10
164.5550706373695
 20
398.3888333916273
 30
0.0
 10
164.1995715466681
 20
397.9306439700253
 30
0.0
 10
164.0218220013166
 20
397.7015492592231
 30
0.0
 11
166.3615976209339
 21
399.5001655304863
 31
0.0
 11
165.8432399191779
 21
399.499961781335
 31
0.0
 11
165.5333897425853
 21
399.4236436525639
 31
0.0
 11
165.0611373746696
 21
399.0973786699637
 31
0.0
 11
164.5414796879931
 21
398.3994639645984
 31
0.0
 11
164.0218220013166
 21
397.7015492592231
 31
0.0
  0
LWPOLYLINE
  5
145C
100
AcDbEntity
  8
VHH-025
100
AcDbPolyline
 90
        6
 70
     0
 43
0.0
 10
154.772426
 20
435.042905
 10
155.889699
 20
435.042892
 10
159.153809
 20
435.04286
 10
161.32851
 20
435.042869
 10
162.797813
 20
435.042889
 10
163.801913
 20
435.042903
  0
ELLIPSE
  5
145D
100
AcDbEntity
  8
VHH-025
100
AcDbEllipse
 10
155.385128
 20
435.152596
 30
0.0
 11
0.0000057216521182
 21
0.999999999975374
 31
0.0
210
0.0
220
0.0
230
1.0
 40
0.616421
 41
1.076513383701558
 42
1.680712066550641
  0
ELLIPSE
  5
145E
100
AcDbEntity
  8
VHH-025
100
AcDbEllipse
 10
164.585475
 20
435.152594
 30
0.0
 11
-0.0000043170876913
 21
0.9999999999737386
 31
0.0
210
0.0
220
0.0
230
1.0
 40
0.788319
 41
1.076504944317234
 42
1.680705136365019
  0
LINE
  5
145F
100
AcDbEntity
  8
VHH-025
100
AcDbLine
 10
148.172502
 20
397.5
 30
0.0
 11
148.145675
 21
399.721138
 31
0.0
  0
LINE
  5
1460
100
AcDbEntity
  8
VHH-025
100
AcDbLine
 10
164.541847
 20
398.4
 30
0.0
 11
147.981753
 21
398.4
 31
0.0
  0
LWPOLYLINE
  5
1461
100
AcDbEntity
  8
VHH-025
100
AcDbPolyline
 90
        6
 70
     0
 43
0.0
 10
163.801913
 20
435.042903
 10
167.77227
 20
435.042867
 10
170.919281
 20
435.042718
 10
172.882885
 20
435.042573
 10
174.203849
 20
435.042451
 10
174.921257
 20
435.042378
  0
ARC
  5
1462
100
AcDbEntity
  8
VHH-025
100
AcDbCircle
 10
171.376224
 20
399.650106
 30
0.0
 40
3.0
100
AcDbArc
 50
116.737455
 51
180.0
  0
LINE
  5
1463
100
AcDbEntity
  8
VHH-025
100
AcDbLine
 10
168.8076
 20
401.2
 30
0.0
 11
147.22463
 21
401.2
 31
0.0
  0
SPLINE
  5
1464
100
AcDbEntity
  8
VHH-025
100
AcDbSpline
210
0.0
220
0.0
230
-1.0
 70
     8
 71
     3
 72
    11
 73
     7
 74
     5
 42
0.0000001
 43
0.0000001
 44
0.0000000001
 40
0.0
 40
0.0
 40
0.0
 40
0.0
 40
0.6345840196798191
 40
1.890391237942621
 40
2.537599161340877
 40
3.47078441374853
 40
3.47078441374853
 40
3.47078441374853
 40
3.47078441374853
 10
232.5631575342986
 20
395.883766753273
 30
0.0
 10
232.5260906832401
 20
396.0954931145656
 30
0.0
 10
232.4156705524363
 20
396.7262144151604
 30
0.0
 10
231.6431937474335
 20
397.3102381639788
 30
0.0
 10
230.7130701788197
 20
397.4662294213533
 30
0.0
 10
230.1855662756409
 20
397.4874513729671
 30
0.0
 10
229.8740875432786
 20
397.4999824396513
 30
0.0
 11
232.5631575342986
 21
395.883766753273
 31
0.0
 11
232.3995530584679
 21
396.49689843042
 31
0.0
 11
231.4384251336842
 21
397.3051588350185
 31
0.0
 11
230.8053095537516
 21
397.439482170877
 31
0.0
 11
229.8740875432786
 21
397.4999824396513
 31
0.0
  0
SPLINE
  5
1465
100
AcDbEntity
  8
VHH-025
100
AcDbSpline
210
0.0
220
0.0
230
-1.0
 70
     8
 71
     3
 72
    10
 73
     6
 74
     4
 42
0.0000001
 43
0.0000001
 44
0.0000000001
 40
0.0
 40
0.0
 40
0.0
 40
0.0
 40
0.5656918030217481
 40
1.131091204875098
 40
1.98428193914176
 40
1.98428193914176
 40
1.98428193914176
 40
1.98428193914176
 10
221.8885641422703
 20
396.6648841375203
 30
0.0
 10
221.7625919434628
 20
396.8055392487323
 30
0.0
 10
221.5107126597808
 20
397.0867767677537
 30
0.0
 10
220.9325074128996
 20
397.4445914560389
 30
0.0
 10
220.4530190772238
 20
397.4791477389563
 30
0.0
 10
220.16463768025
 20
397.4999311207416
 30
0.0
 11
221.8885641422703
 21
396.6648841375203
 31
0.0
 11
221.4912093941738
 21
397.0675209716168
 31
0.0
 11
221.0058640633333
 21
397.357549234804
 31
0.0
 11
220.16463768025
 21
397.4999311207416
 31
0.0
  0
SPLINE
  5
1466
100
AcDbEntity
  8
VHH-025
100
AcDbSpline
210
0.0
220
0.0
230
-1.0
 70
     8
 71
     3
 72
    15
 73
    11
 74
     9
 42
0.0000001
 43
0.0000001
 44
0.0000000001
 40
0.0
 40
0.0
 40
0.0
 40
0.0
 40
0.4359904243240473
 40
0.794812201045396
 40
1.153633987719484
 40
1.512391879192243
 40
2.670988118641679
 40
3.240700171742821
 40
3.620272909986447
 40
4.189922926749681
 40
4.189922926749681
 40
4.189922926749681
 40
4.189922926749681
 10
219.2928264715128
 20
401.5000890768938
 30
0.0
 10
219.1461041093424
 20
401.4818414903484
 30
0.0
 10
218.8786286853122
 20
401.4485760707045
 30
0.0
 10
218.5596689875338
 20
401.2124678438876
 30
0.0
 10
218.3495596134097
 20
400.9110393409222
 30
0.0
 10
218.2344960068083
 20
400.2860140369451
 30
0.0
 10
218.2849883932288
 20
399.5892982105152
 30
0.0
 10
218.1485029661151
 20
398.8929363795016
 30
0.0
 10
217.9365554882617
 20
398.4277974718381
 30
0.0
 10
217.7280757839359
 20
398.1873199087398
 30
0.0
 10
217.6029624041339
 20
398.0430038911058
 30
0.0
 11
219.2928264715128
 21
401.5000890768938
 31
0.0
 11
218.8670195339518
 21
401.4064082249165
 31
0.0
 11
218.574252667774
 21
401.1989458680468
 31
0.0
 11
218.37356653416
 21
400.9014930980697
 31
0.0
 11
218.2908033822832
 21
400.5524121828289
 31
0.0
 11
218.2301548294826
 21
399.3954044045017
 31
0.0
 11
218.1106209140425
 21
398.838373465946
 31
0.0
 11
217.9509212461425
 21
398.4940313690563
 31
0.0
 11
217.6029624041339
 21
398.0430038911058
 31
0.0
  0
SPLINE
  5
1467
100
AcDbEntity
  8
VHH-025
100
AcDbSpline
210
0.0
220
0.0
230
-1.0
 70
     8
 71
     3
 72
    12
 73
     8
 74
     6
 42
0.0000001
 43
0.0000001
 44
0.0000000001
 40
0.0
 40
0.0
 40
0.0
 40
0.0
 40
0.5183577418013518
 40
0.8374683632360886
 40
1.411464127919703
 40
2.281595754333324
 40
3.151727380757142
 40
3.151727380757142
 40
3.151727380757142
 40
3.151727380757142
 10
212.3823683736381
 20
399.5001655304863
 30
0.0
 10
212.5557023164367
 20
399.5103777604088
 30
0.0
 10
212.8357438430941
 20
399.5268768281153
 30
0.0
 10
213.30049121162
 20
399.4190093208753
 30
0.0
 10
213.7884357907442
 20
399.0546962122127
 30
0.0
 10
214.1888953572022
 20
398.3888333916262
 30
0.0
 10
214.5443944479048
 20
397.930643970025
 30
0.0
 10
214.7221439932573
 20
397.7015492592231
 30
0.0
 11
212.3823683736381
 21
399.5001655304863
 31
0.0
 11
212.900726075396
 21
399.499961781335
 31
0.0
 11
213.2105762519868
 21
399.4236436525639
 31
0.0
 11
213.6828286199043
 21
399.0973786699637
 31
0.0
 11
214.2024863065789
 21
398.3994639645984
 31
0.0
 11
214.7221439932573
 21
397.7015492592231
 31
0.0
  0
LINE
  5
1468
100
AcDbEntity
  8
VHH-025
100
AcDbLine
 10
359.024179
 20
308.100231
 30
0.0
 11
359.024179
 21
386.5
 31
0.0
  0
LINE
  5
1469
100
AcDbEntity
  8
VHH-025
100
AcDbLine
 10
345.961471
 20
308.100235
 30
0.0
 11
345.961471
 21
386.5
 31
0.0
  0
LWPOLYLINE
  5
146A
100
AcDbEntity
  8
VHH-025
100
AcDbPolyline
 90
       14
 70
     0
 43
0.0
 10
339.492824
 20
266.9147
 42
-0.236789
 10
339.628278
 20
267.184684
 42
0.124736
 10
340.557157
 20
268.32904
 42
0.224952
 10
340.410848
 20
284.786216
 42
-0.113339
 10
337.405597
 20
297.873749
 10
337.405597
 20
301.748943
 42
-0.301029
 10
340.453
 20
306.351917
 42
-0.203332
 10
364.532649
 20
306.351917
 42
-0.301029
 10
367.580052
 20
301.748943
 10
367.580052
 20
297.873749
 42
-0.113339
 10
364.574801
 20
284.786216
 42
0.224952
 10
364.428492
 20
268.32904
 42
0.124736
 10
365.357371
 20
267.184684
 42
-0.236789
 10
365.492824
 20
266.9147
 42
-0.293728
  0
LWPOLYLINE
  5
146B
100
AcDbEntity
  8
VHH-025
100
AcDbPolyline
 90
        3
 70
   128
 43
0.0
 10
348.342108
 20
265.871072
 42
0.073203
 10
347.103504
 20
262.811483
 42
0.0597
 10
346.622824
 20
258.800004
 42
0.0597
  0
LWPOLYLINE
  5
146C
100
AcDbEntity
  8
VHH-025
100
AcDbPolyline
 90
        5
 70
   128
 43
0.0
 10
356.643541
 20
265.871072
 42
0.106775
 10
354.550446
 20
268.14712
 42
0.154846
 10
352.492824
 20
268.800004
 42
0.154846
 10
350.435203
 20
268.14712
 42
0.096835
 10
348.492824
 20
266.116632
 42
0.073203
  0
LWPOLYLINE
  5
146D
100
AcDbEntity
  8
VHH-025
100
AcDbPolyline
 90
        2
 70
   128
 43
0.0
 10
348.492824
 20
266.116632
 42
0.009838
 10
348.342108
 20
265.871072
 42
0.073203
  0
LWPOLYLINE
  5
146E
100
AcDbEntity
  8
VHH-025
100
AcDbPolyline
 90
        3
 70
   128
 43
0.0
 10
358.362824
 20
258.800004
 42
0.0597
 10
357.882144
 20
262.811483
 42
0.073203
 10
356.643541
 20
265.871072
 42
0.106775
  0
ARC
  5
146F
100
AcDbEntity
  8
VHH-025
100
AcDbCircle
 10
367.408874
 20
258.050004
 30
0.0
 40
0.75
100
AcDbArc
 50
2.0
 51
90.0
  0
LINE
  5
1470
100
AcDbEntity
  8
VHH-025
100
AcDbLine
 10
365.492824
 20
266.9147
 30
0.0
 11
365.492824
 21
258.800004
 31
0.0
  0
LINE
  5
1471
100
AcDbEntity
  8
VHH-025
100
AcDbLine
 10
356.492824
 20
266.116632
 30
0.0
 11
356.492824
 21
258.800004
 31
0.0
  0
LINE
  5
1472
100
AcDbEntity
  8
VHH-025
100
AcDbLine
 10
348.492824
 20
266.116632
 30
0.0
 11
348.492824
 21
258.800004
 31
0.0
  0
LINE
  5
1473
100
AcDbEntity
  8
VHH-025
100
AcDbLine
 10
355.993793
 20
258.722236
 30
0.0
 11
355.993793
 21
265.745067
 31
0.0
  0
LINE
  5
1474
100
AcDbEntity
  8
VHH-025
100
AcDbLine
 10
348.991856
 20
258.722236
 30
0.0
 11
348.991856
 21
265.745067
 31
0.0
  0
LINE
  5
1475
100
AcDbEntity
  8
VHH-025
100
AcDbLine
 10
355.993793
 20
265.745067
 30
0.0
 11
355.200451
 21
266.522747
 31
0.0
  0
LINE
  5
1476
100
AcDbEntity
  8
VHH-025
100
AcDbLine
 10
348.991856
 20
265.745067
 30
0.0
 11
349.785197
 21
266.522747
 31
0.0
  0
LINE
  5
1477
100
AcDbEntity
  8
VHH-025
100
AcDbLine
 10
349.785197
 20
266.522747
 30
0.0
 11
355.200451
 21
266.522747
 31
0.0
  0
LINE
  5
1478
100
AcDbEntity
  8
VHH-025
100
AcDbLine
 10
339.492824
 20
266.9147
 30
0.0
 11
339.492824
 21
258.800004
 31
0.0
  0
ARC
  5
1479
100
AcDbEntity
  8
VHH-025
100
AcDbCircle
 10
337.576775
 20
258.050004
 30
0.0
 40
0.75
100
AcDbArc
 50
90.0
 51
178.0
  0
LINE
  5
147A
100
AcDbEntity
  8
VHH-025
100
AcDbLine
 10
337.576775
 20
258.800004
 30
0.0
 11
367.408874
 21
258.800004
 31
0.0
  0
LWPOLYLINE
  5
147B
100
AcDbEntity
  8
VHH-025
100
AcDbPolyline
 90
        9
 70
   128
 43
0.0
 10
361.362824
 20
258.800004
 42
0.0597
 10
360.797214
 20
263.520263
 42
0.073203
 10
359.230739
 20
267.389757
 42
0.106775
 10
356.280107
 20
270.598298
 42
0.154846
 10
352.492824
 20
271.800004
 42
0.154846
 10
348.705542
 20
270.598298
 42
0.106775
 10
345.754909
 20
267.389757
 42
0.073203
 10
344.188435
 20
263.520263
 42
0.0597
 10
343.622824
 20
258.800004
 42
0.0597
  0
LINE
  5
147C
100
AcDbEntity
  8
VHH-025
100
AcDbLine
 10
328.870574
 20
387.500032
 30
0.0
 11
241.168847
 21
387.499983
 31
0.0
  0
LINE
  5
147D
100
AcDbEntity
  8
VHH-025
100
AcDbLine
 10
242.229405
 20
386.5
 30
0.0
 11
328.8375
 21
386.5
 31
0.0
  0
LINE
  5
147E
100
AcDbEntity
  8
VHH-025
100
AcDbLine
 10
403.890122
 20
427.330385
 30
0.0
 11
300.895529
 21
427.330385
 31
0.0
  0
LINE
  5
147F
100
AcDbEntity
  8
VHH-025
100
AcDbLine
 10
405.530757
 20
429.519382
 30
0.0
 11
299.254894
 21
429.519382
 31
0.0
  0
LINE
  5
1480
100
AcDbEntity
  8
VHH-025
100
AcDbLine
 10
270.342825
 20
398.4
 30
0.0
 11
326.803899
 21
398.4
 31
0.0
  0
LINE
  5
1481
100
AcDbEntity
  8
VHH-025
100
AcDbLine
 10
273.142825
 20
401.2
 30
0.0
 11
327.561022
 21
401.2
 31
0.0
  0
LINE
  5
1482
100
AcDbEntity
  8
VHH-025
100
AcDbLine
 10
329.109408
 20
395.674345
 30
0.0
 11
248.028449
 21
395.604646
 31
0.0
  0
LINE
  5
1483
100
AcDbEntity
  8
VHH-025
100
AcDbLine
 10
244.984581
 20
397.499982
 30
0.0
 11
329.032141
 21
397.500035
 31
0.0
  0
LINE
  5
1484
100
AcDbEntity
  8
VHH-025
100
AcDbLine
 10
330.659596
 20
401.500191
 30
0.0
 11
255.492825
 21
401.500089
 31
0.0
  0
LWPOLYLINE
  5
1485
100
AcDbEntity
  8
VHH-025
100
AcDbPolyline
 90
       10
 70
     0
 43
0.0
 10
320.07383
 20
435.042903
 10
326.243817
 20
435.042861
 10
332.966382
 20
435.0427
 10
342.160772
 20
435.042483
 10
351.690841
 20
435.042378
 10
359.018467
 20
435.042423
 10
366.194728
 20
435.042556
 10
371.965923
 20
435.042705
 10
377.497569
 20
435.042841
 10
384.772425
 20
435.042905
  0
LINE
  5
1486
100
AcDbEntity
  8
VHH-025
100
AcDbLine
 10
347.9577
 20
419.032054
 30
0.0
 11
300.895529
 21
427.330385
 31
0.0
  0
LINE
  5
1487
100
AcDbEntity
  8
VHH-025
100
AcDbLine
 10
247.686034
 20
387.499986
 30
0.0
 11
248.028449
 21
395.604646
 31
0.0
  0
LINE
  5
1488
100
AcDbEntity
  8
VHH-025
100
AcDbLine
 10
241.168847
 20
387.499983
 30
0.0
 11
242.222494
 21
395.883767
 31
0.0
  0
LINE
  5
1489
100
AcDbEntity
  8
VHH-025
100
AcDbLine
 10
252.141977
 20
387.499927
 30
0.0
 11
252.526312
 21
395.6046
 31
0.0
  0
SPLINE
  5
148A
100
AcDbEntity
  8
VHH-025
100
AcDbSpline
210
0.0
220
0.0
230
1.0
 70
     8
 71
     3
 72
     9
 73
     5
 74
     3
 42
0.0000001
 43
0.0000001
 44
0.0000000001
 40
0.0
 40
0.0
 40
0.0
 40
0.0
 40
0.9804242998629113
 40
1.248549817031178
 40
1.248549817031178
 40
1.248549817031178
 40
1.248549817031178
 10
242.2294053569048
 20
386.4999999999995
 30
0.0
 10
241.7741367506671
 20
386.512038884658
 30
0.0
 10
241.194361713372
 20
386.5273701521915
 30
0.0
 10
241.2915329442018
 20
386.0809973494736
 30
0.0
 10
241.3124004227475
 20
385.9851389888813
 30
0.0
 11
242.2294053569048
 21
386.4999999999995
 31
0.0
 11
241.2810169694557
 21
386.2514214926554
 31
0.0
 11
241.3124004227475
 21
385.9851389888813
 31
0.0
  0
LINE
  5
148B
100
AcDbEntity
  8
VHH-025
100
AcDbLine
 10
243.390964
 20
387.499973
 30
0.0
 11
243.303335
 21
386.5
 31
0.0
  0
SPLINE
  5
148C
100
AcDbEntity
  8
VHH-025
100
AcDbSpline
210
0.0
220
0.0
230
1.0
 70
     8
 71
     3
 72
    14
 73
    10
 74
     8
 42
0.0000001
 43
0.0000001
 44
0.0000000001
 40
0.0
 40
0.0
 40
0.0
 40
0.0
 40
0.2762442808532405
 40
0.5524885617056455
 40
1.103680952616389
 40
2.766577242775856
 40
3.871679079315657
 40
4.976969695300173
 40
5.504499993161342
 40
5.504499993161342
 40
5.504499993161342
 40
5.504499993161342
 10
243.7993114977225
 20
372.6328991834266
 30
0.0
 10
243.8425520357951
 20
372.5517775726239
 30
0.0
 10
243.9290331119401
 20
372.3895343510187
 30
0.0
 10
244.0792154902284
 20
372.0493763341199
 30
0.0
 10
244.7232605478654
 20
371.4988278862001
 30
0.0
 10
245.4600347354597
 20
370.6692289969803
 30
0.0
 10
246.0366226367034
 20
369.4935171501903
 30
0.0
 10
246.1985769729153
 20
368.5903837407948
 30
0.0
 10
246.2918291731926
 20
368.0545153142652
 30
0.0
 10
246.3219570093633
 20
367.8813874297161
 30
0.0
 11
243.7993114977225
 21
372.6328991834266
 31
0.0
 11
243.9262076870972
 21
372.3875254688068
 31
0.0
 11
244.0531038764702
 21
372.1421517541871
 31
0.0
 11
244.4307256325164
 21
371.7406360494401
 31
0.0
 11
245.5108124650678
 21
370.4762640685835
 31
0.0
 11
245.9870292310924
 21
369.4790340746099
 31
0.0
 11
246.2312256168452
 21
368.401056583672
 31
0.0
 11
246.3219570093633
 21
367.8813874297161
 31
0.0
  0
SPLINE
  5
148D
100
AcDbEntity
  8
VHH-025
100
AcDbSpline
210
0.0
220
0.0
230
1.0
 70
     8
 71
     3
 72
    14
 73
    10
 74
     8
 42
0.0000001
 43
0.0000001
 44
0.0000000001
 40
0.0
 40
0.0
 40
0.0
 40
0.0
 40
3.191871827524154
 40
5.335857413240205
 40
8.376690508344537
 40
10.96293588672739
 40
13.24458335793557
 40
15.17453521347446
 40
16.06516229607356
 40
16.06516229607356
 40
16.06516229607356
 40
16.06516229607356
 10
247.8153277972623
 20
386.0001236641569
 30
0.0
 10
247.8137689615866
 20
384.9361692513909
 30
0.0
 10
247.8111630534091
 20
383.157554899852
 30
0.0
 10
247.7897656394358
 20
380.3653456421144
 30
0.0
 10
247.7378140008147
 20
377.775567192619
 30
0.0
 10
247.6461177961838
 20
375.1402826607722
 30
0.0
 10
247.5141340012652
 20
372.8793974753944
 30
0.0
 10
247.3691207727761
 20
371.1808284724765
 30
0.0
 10
247.1746348718413
 20
370.2604699642569
 30
0.0
 10
247.1132239294938
 20
369.9698572102447
 30
0.0
 11
247.8153277972623
 21
386.0001236641569
 31
0.0
 11
247.8067065192999
 21
382.8082634797333
 31
0.0
 11
247.788394267297
 21
380.6643560999278
 31
0.0
 11
247.7267082058397
 21
377.6241487481006
 31
0.0
 11
247.631839537903
 21
375.0396439419432
 31
0.0
 11
247.4961733883801
 21
372.762033378492
 31
0.0
 11
247.2860584596646
 21
370.8435532817934
 31
0.0
 11
247.1132239294938
 21
369.9698572102447
 31
0.0
  0
LINE
  5
148E
100
AcDbEntity
  8
VHH-025
100
AcDbLine
 10
241.3124
 20
385.985139
 30
0.0
 11
243.799311
 21
372.632899
 31
0.0
  0
ARC
  5
148F
100
AcDbEntity
  8
VHH-025
100
AcDbCircle
 10
301.242825
 20
429.3
 30
0.0
 40
2.0
100
AcDbArc
 50
173.702494
 51
260.0
  0
LINE
  5
1490
100
AcDbEntity
  8
VHH-025
100
AcDbLine
 10
299.864395
 20
435.042378
 30
0.0
 11
299.254894
 21
429.519382
 31
0.0
  0
ARC
  5
1491
100
AcDbEntity
  8
VHH-025
100
AcDbCircle
 10
273.142825
 20
398.4
 30
0.0
 40
2.8
100
AcDbArc
 50
90.0
 51
180.0
  0
LINE
  5
1492
100
AcDbEntity
  8
VHH-025
100
AcDbLine
 10
270.342825
 20
398.4
 30
0.0
 11
270.342825
 21
397.500025
 31
0.0
  0
SPLINE
  5
1493
100
AcDbEntity
  8
VHH-025
100
AcDbSpline
210
0.0
220
0.0
230
-1.0
 70
     8
 71
     3
 72
    11
 73
     7
 74
     5
 42
0.0000001
 43
0.0000001
 44
0.0000000001
 40
0.0
 40
0.0
 40
0.0
 40
0.0
 40
0.6345840196798191
 40
1.890391237942621
 40
2.537599161339098
 40
3.470784413748566
 40
3.470784413748566
 40
3.470784413748566
 40
3.470784413748566
 10
242.222494095361
 20
395.883766753273
 30
0.0
 10
242.2595609464195
 20
396.0954931145656
 30
0.0
 10
242.3699810772233
 20
396.7262144151604
 30
0.0
 10
243.1424578822257
 20
397.310238163978
 30
0.0
 10
244.0725814508392
 20
397.4662294213538
 30
0.0
 10
244.6000853540181
 20
397.4874513729673
 30
0.0
 10
244.911564086381
 20
397.4999824396513
 30
0.0
 11
242.222494095361
 21
395.883766753273
 31
0.0
 11
242.3860985711917
 21
396.49689843042
 31
0.0
 11
243.3472264959755
 21
397.3051588350185
 31
0.0
 11
243.9803420759062
 21
397.439482170877
 31
0.0
 11
244.911564086381
 21
397.4999824396513
 31
0.0
  0
SPLINE
  5
1494
100
AcDbEntity
  8
VHH-025
100
AcDbSpline
210
0.0
220
0.0
230
-1.0
 70
     8
 71
     3
 72
    10
 73
     6
 74
     4
 42
0.0000001
 43
0.0000001
 44
0.0000000001
 40
0.0
 40
0.0
 40
0.0
 40
0.0
 40
0.5656918030217481
 40
1.131091204875098
 40
1.98428193914176
 40
1.98428193914176
 40
1.98428193914176
 40
1.98428193914176
 10
252.8970874873893
 20
396.6648841375203
 30
0.0
 10
253.0230596861968
 20
396.8055392487323
 30
0.0
 10
253.2749389698787
 20
397.0867767677537
 30
0.0
 10
253.8531442167601
 20
397.4445914560389
 30
0.0
 10
254.3326325524358
 20
397.4791477389563
 30
0.0
 10
254.6210139494096
 20
397.4999311207416
 30
0.0
 11
252.8970874873893
 21
396.6648841375203
 31
0.0
 11
253.2944422354858
 21
397.0675209716168
 31
0.0
 11
253.7797875663263
 21
397.357549234804
 31
0.0
 11
254.6210139494096
 21
397.4999311207416
 31
0.0
  0
SPLINE
  5
1495
100
AcDbEntity
  8
VHH-025
100
AcDbSpline
210
0.0
220
0.0
230
1.0
 70
     8
 71
     3
 72
    15
 73
    11
 74
     9
 42
0.0000001
 43
0.0000001
 44
0.0000000001
 40
0.0
 40
0.0
 40
0.0
 40
0.0
 40
0.4359904243240473
 40
0.794812201045396
 40
1.153633987719484
 40
1.512391879191823
 40
2.67098811864145
 40
3.240700171742211
 40
3.620272909985837
 40
4.18992292674796
 40
4.18992292674796
 40
4.18992292674796
 40
4.18992292674796
 10
255.4928251581468
 20
401.5000890768938
 30
0.0
 10
255.6395475203172
 20
401.4818414903484
 30
0.0
 10
255.9070229443475
 20
401.4485760707045
 30
0.0
 10
256.2259826421257
 20
401.2124678438876
 30
0.0
 10
256.4360920162505
 20
400.9110393409225
 30
0.0
 10
256.5511556228468
 20
400.2860140369442
 30
0.0
 10
256.5006632364352
 20
399.5892982105161
 30
0.0
 10
256.6371486635441
 20
398.8929363795012
 30
0.0
 10
256.8490961413981
 20
398.4277974718386
 30
0.0
 10
257.0575758457227
 20
398.18731990874
 30
0.0
 10
257.1826892255239
 20
398.0430038911058
 30
0.0
 11
255.4928251581468
 21
401.5000890768938
 31
0.0
 11
255.9186320957078
 21
401.4064082249165
 31
0.0
 11
256.2113989618856
 21
401.1989458680468
 31
0.0
 11
256.4120850954996
 21
400.9014930980697
 31
0.0
 11
256.4948482473746
 21
400.5524121828289
 31
0.0
 11
256.5554968001788
 21
399.3954044045017
 31
0.0
 11
256.6750307156171
 21
398.838373465946
 31
0.0
 11
256.8347303835171
 21
398.4940313690563
 31
0.0
 11
257.1826892255239
 21
398.0430038911058
 31
0.0
  0
ELLIPSE
  5
1496
100
AcDbEntity
  8
VHH-025
100
AcDbEllipse
 10
319.462275
 20
435.152594
 30
0.0
 11
-0.0000055313271815
 21
0.9999999999763709
 31
0.0
210
0.0
220
0.0
230
1.0
 40
0.615267
 41
4.602473364330868
 42
5.206673556376944
  0
LWPOLYLINE
  5
1497
100
AcDbEntity
  8
VHH-025
100
AcDbPolyline
 90
        6
 70
     0
 43
0.0
 10
299.864477
 20
435.042378
 10
300.331945
 20
435.042428
 10
301.710073
 20
435.042556
 10
303.648261
 20
435.042705
 10
306.251927
 20
435.042841
 10
311.031111
 20
435.042905
  0
LWPOLYLINE
  5
1498
100
AcDbEntity
  8
VHH-025
100
AcDbPolyline
 90
        3
 70
     0
 43
0.0
 10
299.864395
 20
435.042378
 10
299.851534
 20
435.345546
 10
299.748336
 20
435.6309
  0
ELLIPSE
  5
1499
100
AcDbEntity
  8
VHH-025
100
AcDbEllipse
 10
310.248446
 20
435.152596
 30
0.0
 11
0.0000044791293391
 21
0.9999999999706712
 31
0.0
210
0.0
220
0.0
230
1.0
 40
0.787417
 41
4.602480294514935
 42
5.206678977368046
  0
LWPOLYLINE
  5
149A
100
AcDbEntity
  8
VHH-025
100
AcDbPolyline
 90
        6
 70
     0
 43
0.0
 10
311.031111
 20
435.042905
 10
311.930626
 20
435.042892
 10
314.871357
 20
435.04286
 10
317.133177
 20
435.042869
 10
318.826963
 20
435.042889
 10
320.07383
 20
435.042903
  0
SPLINE
  5
149B
100
AcDbEntity
  8
VHH-025
100
AcDbSpline
210
0.0
220
0.0
230
-1.0
 70
     8
 71
     3
 72
    11
 73
     7
 74
     5
 42
0.0000001
 43
0.0000001
 44
0.0000000001
 40
0.0
 40
0.0
 40
0.0
 40
0.0
 40
1.000366720787654
 40
4.132811894237304
 40
8.265836390237502
 40
11.00558801193081
 40
11.00558801193081
 40
11.00558801193081
 40
11.00558801193081
 10
376.1337196837785
 20
386.4999999425831
 30
0.0
 10
376.1252372137935
 20
386.8333536056431
 30
0.0
 10
376.0901936121646
 20
388.210536547712
 30
0.0
 10
376.0060739244577
 20
390.9639993428754
 30
0.0
 10
375.8085905568122
 20
394.2971764363541
 30
0.0
 10
375.9070459399131
 20
396.5871596121552
 30
0.0
 10
375.9462940240782
 20
397.5000345570265
 30
0.0
 11
376.1337196837785
 21
386.4999999425831
 31
0.0
 11
376.1078612520768
 21
387.500032400841
 31
0.0
 11
376.0033438981527
 21
390.6307334225607
 31
0.0
 11
375.8657528427511
 21
394.7614670360985
 31
0.0
 11
375.9462940240782
 21
397.5000345570265
 31
0.0
  0
LINE
  5
149C
100
AcDbEntity
  8
VHH-025
100
AcDbLine
 10
347.530986
 20
386.5
 30
0.0
 11
347.90739
 21
401.962593
 31
0.0
  0
LINE
  5
149D
100
AcDbEntity
  8
VHH-025
100
AcDbLine
 10
357.447449
 20
386.5
 30
0.0
 11
357.071045
 21
401.962593
 31
0.0
  0
LINE
  5
149E
100
AcDbEntity
  8
VHH-025
100
AcDbLine
 10
374.708557
 20
386.5
 30
0.0
 11
374.085848
 21
400.511953
 31
0.0
  0
SPLINE
  5
149F
100
AcDbEntity
  8
VHH-025
100
AcDbSpline
210
0.0
220
0.0
230
1.0
 70
     8
 71
     3
 72
    11
 73
     7
 74
     5
 42
0.0000001
 43
0.0000001
 44
0.0000000001
 40
0.0
 40
0.0
 40
0.0
 40
0.0
 40
1.000366720787654
 40
4.132811894237304
 40
8.265836390237563
 40
11.00558801193088
 40
11.00558801193088
 40
11.00558801193088
 40
11.00558801193088
 10
328.8447152371673
 20
386.4999999425831
 30
0.0
 10
328.8531977071522
 20
386.8333536056431
 30
0.0
 10
328.8882413087812
 20
388.210536547712
 30
0.0
 10
328.9723609964875
 20
390.9639993428753
 30
0.0
 10
329.1698443641357
 20
394.2971764363541
 30
0.0
 10
329.0713889810344
 20
396.5871596121552
 30
0.0
 10
329.0321408968693
 20
397.5000345570265
 30
0.0
 11
328.8447152371673
 21
386.4999999425831
 31
0.0
 11
328.8705736688689
 21
387.500032400841
 31
0.0
 11
328.975091022793
 21
390.6307334225607
 31
0.0
 11
329.1126820781964
 21
394.7614670360985
 31
0.0
 11
329.0321408968693
 21
397.5000345570265
 31
0.0
  0
LINE
  5
14A0
100
AcDbEntity
  8
VHH-025
100
AcDbLine
 10
330.269878
 20
386.5
 30
0.0
 11
330.892587
 21
400.511953
 31
0.0
  0
LINE
  5
14A1
100
AcDbEntity
  8
VHH-025
100
AcDbLine
 10
328.8375
 20
386.5
 30
0.0
 11
376.140935
 21
386.5
 31
0.0
  0
LINE
  5
14A2
100
AcDbEntity
  8
VHH-025
100
AcDbLine
 10
356.82795
 20
419.032054
 30
0.0
 11
403.890122
 21
427.330385
 31
0.0
  0
LINE
  5
14A3
100
AcDbEntity
  8
VHH-025
100
AcDbLine
 10
374.126055
 20
401.500191
 30
0.0
 11
399.01459
 21
401.500157
 31
0.0
  0
LINE
  5
14A4
100
AcDbEntity
  8
VHH-025
100
AcDbLine
 10
394.541846
 20
398.4
 30
0.0
 11
377.981752
 21
398.4
 31
0.0
  0
LINE
  5
14A5
100
AcDbEntity
  8
VHH-025
100
AcDbLine
 10
398.807599
 20
401.2
 30
0.0
 11
377.224629
 21
401.2
 31
0.0
  0
LWPOLYLINE
  5
14A6
100
AcDbEntity
  8
VHH-025
100
AcDbPolyline
 90
        6
 70
     0
 43
0.0
 10
384.772425
 20
435.042905
 10
385.889698
 20
435.042892
 10
389.153808
 20
435.04286
 10
391.328509
 20
435.042869
 10
392.797812
 20
435.042889
 10
393.801912
 20
435.042903
  0
SPLINE
  5
14A7
100
AcDbEntity
  8
VHH-025
100
AcDbSpline
210
0.0
220
0.0
230
-1.0
 70
     8
 71
     3
 72
    13
 73
     9
 74
     0
 42
0.0000001
 43
0.0000001
 40
0.0209144496635199
 40
0.0209144496635199
 40
0.0209144496635199
 40
0.0209144496635199
 40
3.296463989968982
 40
8.729114775329056
 40
13.2640661055983
 40
17.20111388624939
 40
20.55573193448323
 40
21.91587199566444
 40
21.91587199566444
 40
21.91587199566444
 40
21.91587199566444
 10
352.4892174604747
 20
403.0670801867676
 30
0.0
 10
353.580729463757
 20
403.0389388192593
 30
0.0
 10
356.4825566988611
 20
402.9638813566402
 30
0.0
 10
360.8904426623694
 20
402.6953103872688
 30
0.0
 10
365.5038713641561
 20
402.2480066770927
 30
0.0
 10
369.4340380199528
 20
401.9386171315586
 30
0.0
 10
372.3056302121267
 20
401.6715865250894
 30
0.0
 10
373.8715787860755
 20
401.5385657952324
 30
0.0
 10
374.3233324794246
 20
401.5001912234197
 30
0.0
  0
SPLINE
  5
14A8
100
AcDbEntity
  8
VHH-025
100
AcDbSpline
210
0.0
220
0.0
230
-1.0
 70
     8
 71
     3
 72
    10
 73
     6
 74
     4
 42
0.0000001
 43
0.0000001
 44
0.0000000001
 40
0.0
 40
0.0
 40
0.0
 40
0.0
 40
0.7389541528466666
 40
1.053804214992081
 40
1.581800210478961
 40
1.581800210478961
 40
1.581800210478961
 40
1.581800210478961
 10
355.4220895861026
 20
402.98232403893
 30
0.0
 10
355.6872118626837
 20
402.9627279298443
 30
0.0
 10
356.0652961747797
 20
402.9347824040326
 30
0.0
 10
356.3803090568855
 20
402.475788999173
 30
0.0
 10
356.4245254366156
 20
402.1964483898784
 30
0.0
 10
356.4522245297311
 20
402.0214570949097
 30
0.0
 11
355.4220895861026
 21
402.98232403893
 31
0.0
 11
356.1347393312671
 21
402.786917844744
 31
0.0
 11
356.3206088793876
 21
402.53278584614
 31
0.0
 11
356.4522245297311
 21
402.0214570949097
 31
0.0
  0
SPLINE
  5
14A9
100
AcDbEntity
  8
VHH-025
100
AcDbSpline
210
0.0
220
0.0
230
-1.0
 70
     8
 71
     3
 72
    10
 73
     6
 74
     4
 42
0.0000001
 43
0.0000001
 44
0.0000000001
 40
0.0
 40
0.0
 40
0.0
 40
0.0
 40
0.7389541528466666
 40
1.053804214991007
 40
1.581800210478341
 40
1.581800210478341
 40
1.581800210478341
 40
1.581800210478341
 10
349.5563453348431
 20
402.98232403893
 30
0.0
 10
349.2912230582615
 20
402.9627279298446
 30
0.0
 10
348.9131387461652
 20
402.9347824040333
 30
0.0
 10
348.5981258640627
 20
402.4757889991721
 30
0.0
 10
348.5539094843311
 20
402.1964483898782
 30
0.0
 10
348.5262103912146
 20
402.0214570949097
 30
0.0
 11
349.5563453348431
 21
402.98232403893
 31
0.0
 11
348.8436955896786
 21
402.786917844744
 31
0.0
 11
348.6578260415599
 21
402.53278584614
 31
0.0
 11
348.5262103912146
 21
402.0214570949097
 31
0.0
  0
SPLINE
  5
14AA
100
AcDbEntity
  8
VHH-025
100
AcDbSpline
210
0.0
220
0.0
230
-1.0
 70
     8
 71
     3
 72
    11
 73
     7
 74
     5
 42
0.0000001
 43
0.0000001
 44
0.0000000001
 40
0.0
 40
0.0
 40
0.0
 40
0.0
 40
0.568037194633695
 40
1.463279599702922
 40
2.456250895123692
 40
4.878568014843552
 40
4.878568014843552
 40
4.878568014843552
 40
4.878568014843552
 10
378.14567433114
 20
399.721138345762
 30
0.0
 10
378.1496880535746
 20
399.9093668388411
 30
0.0
 10
378.1600275141115
 20
400.3942486680726
 30
0.0
 10
377.745193996096
 20
401.2384783989694
 30
0.0
 10
376.1895622754268
 20
401.3392451567335
 30
0.0
 10
375.0851058907906
 20
401.4344695822712
 30
0.0
 10
374.3017624997528
 20
401.5020081699853
 30
0.0
 11
378.14567433114
 21
399.721138345762
 31
0.0
 11
378.1189158778879
 21
400.2885449369
 31
0.0
 11
377.6802033594476
 21
401.0689232361869
 31
0.0
 11
376.7162279767226
 21
401.307132083692
 31
0.0
 11
374.3017624997528
 21
401.5020081699853
 31
0.0
  0
SPLINE
  5
14AB
100
AcDbEntity
  8
VHH-025
100
AcDbSpline
210
0.0
220
0.0
230
-1.0
 70
     8
 71
     3
 72
    10
 73
     6
 74
     0
 42
0.0000001
 43
0.0000001
 40
0.0
 40
0.0
 40
0.0
 40
0.0
 40
1.375284005263003
 40
2.605605434342426
 40
3.964137258047949
 40
3.964137258047949
 40
3.964137258047949
 40
3.964137258047949
 10
356.4522245297311
 20
402.0214570949097
 30
0.0
 10
355.9940516053093
 20
402.0365111812529
 30
0.0
 10
355.1259997286261
 20
402.0650325695892
 30
0.0
 10
353.8050351947777
 20
402.1024993161868
 30
0.0
 10
352.9420857960585
 20
402.1026516535589
 30
0.0
 10
352.4892174604729
 20
402.1004469203685
 30
0.0
  0
SPLINE
  5
14AC
100
AcDbEntity
  8
VHH-025
100
AcDbSpline
210
0.0
220
0.0
230
-1.0
 70
     8
 71
     3
 72
    10
 73
     6
 74
     0
 42
0.0000001
 43
0.0000001
 40
0.0
 40
0.0
 40
0.0
 40
0.0
 40
1.375284005263003
 40
2.605605434342426
 40
3.964137258047949
 40
3.964137258047949
 40
3.964137258047949
 40
3.964137258047949
 10
348.5262103912146
 20
402.0214570949097
 30
0.0
 10
348.9843833156364
 20
402.0365111812529
 30
0.0
 10
349.8524351923215
 20
402.0650325695892
 30
0.0
 10
351.1733997261699
 20
402.1024993161868
 30
0.0
 10
352.036349124889
 20
402.1026516535589
 30
0.0
 10
352.4892174604729
 20
402.1004469203685
 30
0.0
  0
SPLINE
  5
14AD
100
AcDbEntity
  8
VHH-025
100
AcDbSpline
210
0.0
220
0.0
230
-1.0
 70
     8
 71
     3
 72
    12
 73
     8
 74
     6
 42
0.0000001
 43
0.0000001
 44
0.0000000001
 40
0.0
 40
0.0
 40
0.0
 40
0.0
 40
2.81843646764347
 40
7.77665889482409
 40
10.89635099230827
 40
14.08080739443996
 40
16.8382136326045
 40
16.8382136326045
 40
16.8382136326045
 40
16.8382136326045
 10
373.2241439476829
 20
400.5504793369905
 30
0.0
 10
372.2898709007259
 20
400.649246576885
 30
0.0
 10
369.71201509868
 20
400.9217661612224
 30
0.0
 10
366.0991466192832
 20
401.2951948630837
 30
0.0
 10
362.3595939843844
 20
401.6292885001964
 30
0.0
 10
359.3446749044959
 20
401.8159050580861
 30
0.0
 10
357.3690441864619
 20
401.9563032898574
 30
0.0
 10
356.4522245297311
 20
402.0214570949097
 30
0.0
 11
373.2241439476829
 21
400.5504793369905
 31
0.0
 11
370.4212425448395
 21
400.8459921930239
 31
0.0
 11
365.488112265838
 21
401.3441842120242
 31
0.0
 11
362.3800548658391
 21
401.6133644145233
 31
0.0
 11
359.2029674818031
 21
401.8298784585872
 31
0.0
 11
356.4522245297311
 21
402.0214570949097
 31
0.0
  0
LINE
  5
14AE
100
AcDbEntity
  8
VHH-025
100
AcDbLine
 10
355.992825
 20
418.3
 30
0.0
 11
348.792825
 21
418.3
 31
0.0
  0
ARC
  5
14AF
100
AcDbEntity
  8
VHH-025
100
AcDbCircle
 10
347.784052
 20
418.047246
 30
0.0
 40
1.0
100
AcDbArc
 50
30.0
 51
80.0
  0
LINE
  5
14B0
100
AcDbEntity
  8
VHH-025
100
AcDbLine
 10
348.792825
 20
418.3
 30
0.0
 11
348.650078
 21
418.547246
 31
0.0
  0
ARC
  5
14B1
100
AcDbEntity
  8
VHH-025
100
AcDbCircle
 10
357.001598
 20
418.047246
 30
0.0
 40
1.0
100
AcDbArc
 50
100.0
 51
150.0
  0
LINE
  5
14B2
100
AcDbEntity
  8
VHH-025
100
AcDbLine
 10
355.992825
 20
418.3
 30
0.0
 11
356.135573
 21
418.547246
 31
0.0
  0
LINE
  5
14B3
100
AcDbEntity
  8
VHH-025
100
AcDbLine
 10
374.085848
 20
400.511953
 30
0.0
 11
375.795197
 21
400.451988
 31
0.0
  0
LINE
  5
14B4
100
AcDbEntity
  8
VHH-025
100
AcDbLine
 10
378.172501
 20
397.5
 30
0.0
 11
378.145674
 21
399.721138
 31
0.0
  0
ELLIPSE
  5
14B5
100
AcDbEntity
  8
VHH-025
100
AcDbEllipse
 10
385.385127
 20
435.152596
 30
0.0
 11
0.0000057216521182
 21
0.999999999975374
 31
0.0
210
0.0
220
0.0
230
1.0
 40
0.616421
 41
1.076513383701558
 42
1.680712066550641
  0
SPLINE
  5
14B6
100
AcDbEntity
  8
VHH-025
100
AcDbSpline
210
0.0
220
0.0
230
-1.0
 70
     8
 71
     3
 72
    11
 73
     7
 74
     5
 42
0.0000001
 43
0.0000001
 44
0.0000000001
 40
0.0
 40
0.0
 40
0.0
 40
0.0
 40
0.5680371946337807
 40
1.463279599702116
 40
2.456250895122886
 40
4.878568014842747
 40
4.878568014842747
 40
4.878568014842747
 40
4.878568014842747
 10
326.8327605898057
 20
399.721138345762
 30
0.0
 10
326.8287468673719
 20
399.909366838841
 30
0.0
 10
326.8184074068372
 20
400.394248668072
 30
0.0
 10
327.233240924849
 20
401.2384783989698
 30
0.0
 10
328.7888726455197
 20
401.3392451567333
 30
0.0
 10
329.8933290301555
 20
401.4344695822711
 30
0.0
 10
330.6766724211929
 20
401.5020081699853
 30
0.0
 11
326.8327605898057
 21
399.721138345762
 31
0.0
 11
326.8595190430596
 21
400.2885449369
 31
0.0
 11
327.2982315614981
 21
401.0689232361869
 31
0.0
 11
328.2622069442231
 21
401.307132083692
 31
0.0
 11
330.6766724211929
 21
401.5020081699853
 31
0.0
  0
LINE
  5
14B7
100
AcDbEntity
  8
VHH-025
100
AcDbLine
 10
330.892587
 20
400.511953
 30
0.0
 11
329.183238
 21
400.451988
 31
0.0
  0
LINE
  5
14B8
100
AcDbEntity
  8
VHH-025
100
AcDbLine
 10
326.805934
 20
397.5
 30
0.0
 11
326.832761
 21
399.721138
 31
0.0
  0
SPLINE
  5
14B9
100
AcDbEntity
  8
VHH-025
100
AcDbSpline
210
0.0
220
0.0
230
-1.0
 70
     8
 71
     3
 72
    12
 73
     8
 74
     6
 42
0.0000001
 43
0.0000001
 44
0.0000000001
 40
0.0
 40
0.0
 40
0.0
 40
0.0
 40
2.818436467645279
 40
7.776658894824089
 40
10.89635099231008
 40
14.08080739443995
 40
16.8382136326045
 40
16.8382136326045
 40
16.8382136326045
 40
16.8382136326045
 10
331.7542909732628
 20
400.5504793369905
 30
0.0
 10
332.6885640202204
 20
400.649246576885
 30
0.0
 10
335.2664198222662
 20
400.9217661612221
 30
0.0
 10
338.8792883016638
 20
401.2951948630838
 30
0.0
 10
342.6188409365619
 20
401.6292885001962
 30
0.0
 10
345.6337600164503
 20
401.8159050580863
 30
0.0
 10
347.6093907344839
 20
401.9563032898575
 30
0.0
 10
348.5262103912146
 20
402.0214570949097
 30
0.0
 11
331.7542909732628
 21
400.5504793369905
 31
0.0
 11
334.5571923761081
 21
400.8459921930239
 31
0.0
 11
339.4903226551077
 21
401.3441842120242
 31
0.0
 11
342.5983800551084
 21
401.6133644145233
 31
0.0
 11
345.7754674391426
 21
401.8298784585872
 31
0.0
 11
348.5262103912146
 21
402.0214570949097
 31
0.0
  0
SPLINE
  5
14BA
100
AcDbEntity
  8
VHH-025
100
AcDbSpline
210
0.0
220
0.0
230
-1.0
 70
     8
 71
     3
 72
    13
 73
     9
 74
     0
 42
0.0000001
 43
0.0000001
 40
0.0209144496635199
 40
0.0209144496635199
 40
0.0209144496635199
 40
0.0209144496635199
 40
3.296463989968982
 40
8.729114775329056
 40
13.2640661055983
 40
17.20111388624939
 40
20.55573193448323
 40
21.91587199566444
 40
21.91587199566444
 40
21.91587199566444
 40
21.91587199566444
 10
352.4892174604729
 20
403.0670801867676
 30
0.0
 10
351.3977054571905
 20
403.0389388192593
 30
0.0
 10
348.4958782220846
 20
402.9638813566402
 30
0.0
 10
344.0879922585782
 20
402.6953103872688
 30
0.0
 10
339.4745635567896
 20
402.2480066770927
 30
0.0
 10
335.5443969009948
 20
401.9386171315586
 30
0.0
 10
332.672804708819
 20
401.6715865250894
 30
0.0
 10
331.106856134872
 20
401.5385657952324
 30
0.0
 10
330.655102441523
 20
401.5001912234197
 30
0.0
  0
LINE
  5
14BB
100
AcDbEntity
  8
VHH-025
100
AcDbLine
 10
361.392825
 20
452.471954
 30
0.0
 11
343.392825
 21
452.471954
 31
0.0
  0
SPLINE
  5
14BC
100
AcDbEntity
  8
VHH-025
100
AcDbSpline
210
0.0
220
0.0
230
-1.0
 70
     8
 71
     3
 72
    12
 73
     8
 74
     6
 42
0.0000001
 43
0.0000001
 44
0.0000000001
 40
0.0
 40
0.0
 40
0.0
 40
0.0
 40
0.5183577417995328
 40
0.8374683632360358
 40
1.411464127918153
 40
2.281595754332861
 40
3.151727380755593
 40
3.151727380755593
 40
3.151727380755593
 40
3.151727380755593
 10
396.3615964913233
 20
399.5001655304863
 30
0.0
 10
396.1882625485254
 20
399.5103777604086
 30
0.0
 10
395.9082210218681
 20
399.5268768281149
 30
0.0
 10
395.4434736533422
 20
399.4190093208763
 30
0.0
 10
394.9555290742193
 20
399.0546962122113
 30
0.0
 10
394.5550695077587
 20
398.3888333916273
 30
0.0
 10
394.1995704170575
 20
397.9306439700253
 30
0.0
 10
394.021820871706
 20
397.7015492592231
 30
0.0
 11
396.3615964913233
 21
399.5001655304863
 31
0.0
 11
395.8432387895673
 21
399.499961781335
 31
0.0
 11
395.5333886129747
 21
399.4236436525639
 31
0.0
 11
395.061136245059
 21
399.0973786699637
 31
0.0
 11
394.5414785583825
 21
398.3994639645984
 31
0.0
 11
394.021820871706
 21
397.7015492592231
 31
0.0
  0
LWPOLYLINE
  5
14BD
100
AcDbEntity
  8
VHH-025
100
AcDbPolyline
 90
        3
 70
     0
 43
0.0
 10
405.037314
 20
435.6309
 10
404.934117
 20
435.345546
 10
404.921256
 20
435.042378
  0
ELLIPSE
  5
14BE
100
AcDbEntity
  8
VHH-025
100
AcDbEllipse
 10
394.585473
 20
435.152594
 30
0.0
 11
-0.0000043170876913
 21
0.9999999999737386
 31
0.0
210
0.0
220
0.0
230
1.0
 40
0.788319
 41
1.076504944317234
 42
1.680705136365019
  0
LWPOLYLINE
  5
14BF
100
AcDbEntity
  8
VHH-025
100
AcDbPolyline
 90
        6
 70
     0
 43
0.0
 10
393.801912
 20
435.042903
 10
397.772268
 20
435.042867
 10
400.91928
 20
435.042718
 10
402.882884
 20
435.042573
 10
404.203847
 20
435.042451
 10
404.921256
 20
435.042378
  0
ARC
  5
14C0
100
AcDbEntity
  8
VHH-025
100
AcDbCircle
 10
401.376223
 20
399.650106
 30
0.0
 40
3.0
100
AcDbArc
 50
116.737455
 51
180.0
  0
LINE
  5
14C1
100
AcDbEntity
  8
VHH-025
100
AcDbLine
 10
404.921256
 20
435.042378
 30
0.0
 11
405.530757
 21
429.519382
 31
0.0
  0
ARC
  5
14C2
100
AcDbEntity
  8
VHH-025
100
AcDbCircle
 10
403.542825
 20
429.3
 30
0.0
 40
2.0
100
AcDbArc
 50
280.0
 51
6.297506
  0
LINE
  5
14C3
100
AcDbEntity
  8
VHH-025
100
AcDbLine
 10
452.522917
 20
384.176077
 30
0.0
 11
452.73441
 21
59.998566
 31
0.0
  0
LINE
  5
14C4
100
AcDbEntity
  8
VHH-025
100
AcDbLine
 10
458.463693
 20
367.881387
 30
0.0
 11
458.492825
 21
86.779748
 31
0.0
  0
SPLINE
  5
14D6
100
AcDbEntity
  8
VHH-025
100
AcDbSpline
210
0.0
220
0.0
230
-1.0
 70
     8
 71
     3
 72
    14
 73
    10
 74
     8
 42
0.0000001
 43
0.0000001
 44
0.0000000001
 40
0.0
 40
0.0
 40
0.0
 40
0.0
 40
1.042699229939018
 40
2.81015927119908
 40
5.132104488893032
 40
8.545412163540852
 40
14.83806452703922
 40
23.23839865586867
 40
26.59484554393205
 40
26.59484554393205
 40
26.59484554393205
 40
26.59484554393205
 10
458.2341168108569
 20
86.4168177538154
 30
0.0
 10
458.0909049555164
 20
86.0998919144891
 30
0.0
 10
457.7049373519399
 20
85.24575098861786
 30
0.0
 10
457.2530360763122
 20
83.5838625870542
 30
0.0
 10
457.0195093641837
 20
81.08944430745269
 30
0.0
 10
456.7472344843223
 20
77.09051834881711
 30
0.0
 10
456.6487882108744
 20
71.05280090567001
 30
0.0
 10
456.6021988032823
 20
65.03749804162265
 30
0.0
 10
456.5822270225666
 20
61.11855248837159
 30
0.0
 10
456.5765252729861
 20
59.99973156385158
 30
0.0
 11
458.2341168108569
 21
86.4168177538154
 31
0.0
 11
457.8235523689317
 21
85.45835099740589
 31
0.0
 11
457.3453482757805
 21
83.75681174051397
 31
0.0
 11
457.0614585281118
 21
81.45228658223505
 31
0.0
 11
456.8330600118106
 21
78.04662902464634
 31
0.0
 11
456.667944625874
 21
71.75614329799782
 31
0.0
 11
456.5944761297678
 21
63.35613044943284
 31
0.0
 11
456.5765252729861
 21
59.99973156385158
 31
0.0
  0
LINE
  5
14D7
100
AcDbEntity
  8
VHH-025
100
AcDbLine
 10
460.848091
 20
81.931261
 30
0.0
 11
463.46521
 21
60.010978
 31
0.0
  0
ARC
  5
14D8
100
AcDbEntity
  8
VHH-025
100
AcDbCircle
 10
465.940091
 20
56.5
 30
0.0
 40
1.0
100
AcDbArc
 50
0.499999
 51
89.999996
  0
SPLINE
  5
14D9
100
AcDbEntity
  8
VHH-025
100
AcDbSpline
210
0.0
220
0.0
230
1.0
 70
     8
 71
     3
 72
     9
 73
     5
 74
     3
 42
0.0000001
 43
0.0000001
 44
0.0000000001
 40
0.0
 40
0.0
 40
0.0
 40
0.0
 40
0.3652855011139116
 40
1.009075545627074
 40
1.009075545627074
 40
1.009075545627074
 40
1.009075545627074
 10
463.4652096633626
 20
60.01097831338075
 30
0.0
 10
463.4644545411227
 20
59.8740367369616
 30
0.0
 10
463.4623685689617
 20
59.49574524846069
 30
0.0
 10
463.0474881173314
 20
59.49834277711407
 30
0.0
 10
462.7827944523423
 20
59.49999999999954
 30
0.0
 11
463.4652096633626
 21
60.01097831338075
 31
0.0
 11
463.4088500113839
 21
59.65006684646278
 31
0.0
 11
462.7827944523423
 21
59.49999999999954
 31
0.0
  0
LINE
  5
14DA
100
AcDbEntity
  8
VHH-025
100
AcDbLine
 10
462.491131
 20
59.5
 30
0.0
 11
462.491131
 21
57.5
 31
0.0
  0
LINE
  5
14DB
100
AcDbEntity
  8
VHH-025
100
AcDbLine
 10
471.712777
 20
40.5
 30
0.0
 11
469.388475
 21
40.5
 31
0.0
  0
ARC
  5
14DC
100
AcDbEntity
  8
VHH-025
100
AcDbCircle
 10
472.032899
 20
39.487588
 30
0.0
 40
1.026416
100
AcDbArc
 50
4.035286
 51
99.47558
  0
SPLINE
  5
14DD
100
AcDbEntity
  8
VHH-025
100
AcDbSpline
210
0.0
220
0.0
230
-1.0
 70
     8
 71
     3
 72
    13
 73
     9
 74
     7
 42
0.0000001
 43
0.0000001
 44
0.0000000001
 40
0.0
 40
0.0
 40
0.0
 40
0.0
 40
1.069269359765731
 40
2.131729584630803
 40
3.197797541178194
 40
4.262175338941027
 40
4.899079804343071
 40
5.532914177887702
 40
5.532914177887702
 40
5.532914177887702
 40
5.532914177887702
 10
458.4928253949701
 20
86.77974786632011
 30
0.0
 10
458.514769895614
 20
86.4224173978147
 30
0.0
 10
458.5585191537548
 20
85.71003195045664
 30
0.0
 10
458.9121619067343
 20
84.69404124085231
 30
0.0
 10
459.4451811738397
 20
83.7580553319618
 30
0.0
 10
460.1085615322654
 20
83.11816281432951
 30
0.0
 10
460.6587393460405
 20
82.54691720436166
 30
0.0
 10
460.7850753399177
 20
82.13614872162359
 30
0.0
 10
460.8480907236307
 20
81.93126068645188
 30
0.0
 11
458.4928253949701
 21
86.77974786632011
 31
0.0
 11
458.6069654240427
 21
85.71658794537825
 31
0.0
 11
458.9416465464719
 21
84.70821783688142
 31
0.0
 11
459.4842873576826
 21
83.79058946003942
 31
0.0
 11
460.2082995929313
 21
83.01039308759163
 31
0.0
 11
460.6159875498151
 21
82.52106923996008
 31
0.0
 11
460.8480907236307
 21
81.93126068645188
 31
0.0
  0
LINE
  5
150C
100
AcDbEntity
  8
VHH-025
100
AcDbLine
 10
452.643674
 20
387.499927
 30
0.0
 11
452.259339
 21
395.6046
 31
0.0
  0
LINE
  5
150D
100
AcDbEntity
  8
VHH-025
100
AcDbLine
 10
463.616804
 20
387.499983
 30
0.0
 11
462.563156
 21
395.883767
 31
0.0
  0
LINE
  5
150E
100
AcDbEntity
  8
VHH-025
100
AcDbLine
 10
457.099617
 20
387.499986
 30
0.0
 11
456.757202
 21
395.604646
 31
0.0
  0
SPLINE
  5
150F
100
AcDbEntity
  8
VHH-025
100
AcDbSpline
210
0.0
220
0.0
230
1.0
 70
     8
 71
     3
 72
     9
 73
     5
 74
     3
 42
0.0000001
 43
0.0000001
 44
0.0000000001
 40
0.0
 40
0.0
 40
0.0
 40
0.0
 40
0.9804242998629113
 40
1.248549817030965
 40
1.248549817030965
 40
1.248549817030965
 40
1.248549817030965
 10
462.5562451431441
 20
386.4999999999995
 30
0.0
 10
463.0115137493809
 20
386.5120388846581
 30
0.0
 10
463.5912887866748
 20
386.5273701521918
 30
0.0
 10
463.4941175558484
 20
386.0809973494736
 30
0.0
 10
463.4732500773034
 20
385.9851389888813
 30
0.0
 11
462.5562451431441
 21
386.4999999999995
 31
0.0
 11
463.5046335305933
 21
386.2514214926554
 31
0.0
 11
463.4732500773034
 21
385.9851389888813
 31
0.0
  0
LINE
  5
1510
100
AcDbEntity
  8
VHH-025
100
AcDbLine
 10
461.394686
 20
387.499973
 30
0.0
 11
461.482316
 21
386.5
 31
0.0
  0
SPLINE
  5
1511
100
AcDbEntity
  8
VHH-025
100
AcDbSpline
210
0.0
220
0.0
230
-1.0
 70
     8
 71
     3
 72
    14
 73
    10
 74
     8
 42
0.0000001
 43
0.0000001
 44
0.0000000001
 40
0.0
 40
0.0
 40
0.0
 40
0.0
 40
0.2762442808524049
 40
0.5524885617056455
 40
1.103680952616389
 40
2.766577242774674
 40
3.871679079314476
 40
4.976969695298992
 40
5.504499993160161
 40
5.504499993160161
 40
5.504499993160161
 40
5.504499993160161
 10
460.9863390023265
 20
372.6328991834266
 30
0.0
 10
460.9430984642548
 20
372.5517775726237
 30
0.0
 10
460.8566173881113
 20
372.3895343510179
 30
0.0
 10
460.7064350098196
 20
372.0493763341207
 30
0.0
 10
460.0623899521853
 20
371.4988278861998
 30
0.0
 10
459.3256157645909
 20
370.6692289969799
 30
0.0
 10
458.7490278633474
 20
369.4935171501903
 30
0.0
 10
458.5870735271355
 20
368.5903837407949
 30
0.0
 10
458.4938213268583
 20
368.0545153142652
 30
0.0
 10
458.4636934906875
 20
367.8813874297161
 30
0.0
 11
460.9863390023265
 21
372.6328991834266
 31
0.0
 11
460.8594428129536
 21
372.3875254688068
 31
0.0
 11
460.7325466235788
 21
372.1421517541871
 31
0.0
 11
460.3549248675326
 21
371.7406360494401
 31
0.0
 11
459.2748380349831
 21
370.4762640685835
 31
0.0
 11
458.7986212689584
 21
369.4790340746099
 31
0.0
 11
458.5544248832056
 21
368.401056583672
 31
0.0
 11
458.4636934906875
 21
367.8813874297161
 31
0.0
  0
SPLINE
  5
1512
100
AcDbEntity
  8
VHH-025
100
AcDbSpline
210
0.0
220
0.0
230
-1.0
 70
     8
 71
     3
 72
    14
 73
    10
 74
     8
 42
0.0000001
 43
0.0000001
 44
0.0000000001
 40
0.0
 40
0.0
 40
0.0
 40
0.0
 40
3.191871827524154
 40
5.335857413240221
 40
8.376690508344552
 40
10.96293588672734
 40
13.24458335793563
 40
15.17453521347432
 40
16.06516229607342
 40
16.06516229607342
 40
16.06516229607342
 40
16.06516229607342
 10
456.9703227027867
 20
386.0001236641569
 30
0.0
 10
456.9718815384621
 20
384.9361692513909
 30
0.0
 10
456.9744874466389
 20
383.1575548998518
 30
0.0
 10
456.9958848606157
 20
380.3653456421144
 30
0.0
 10
457.0478364992371
 20
377.7755671926191
 30
0.0
 10
457.1395327038636
 20
375.140282660772
 30
0.0
 10
457.2715164987873
 20
372.8793974753945
 30
0.0
 10
457.4165297272725
 20
371.1808284724764
 30
0.0
 10
457.6110156282076
 20
370.2604699642569
 30
0.0
 10
457.6724265705552
 20
369.9698572102447
 30
0.0
 11
456.9703227027867
 21
386.0001236641569
 31
0.0
 11
456.9789439807491
 21
382.8082634797333
 31
0.0
 11
456.9972562327539
 21
380.6643560999278
 31
0.0
 11
457.0589422942112
 21
377.6241487481006
 31
0.0
 11
457.153810962146
 21
375.0396439419432
 31
0.0
 11
457.2894771116707
 21
372.762033378492
 31
0.0
 11
457.4995920403844
 21
370.8435532817934
 31
0.0
 11
457.6724265705552
 21
369.9698572102447
 31
0.0
  0
LINE
  5
1513
100
AcDbEntity
  8
VHH-025
100
AcDbLine
 10
463.47325
 20
385.985139
 30
0.0
 11
460.986339
 21
372.632899
 31
0.0
  0
SPLINE
  5
1514
100
AcDbEntity
  8
VHH-025
100
AcDbSpline
210
0.0
220
0.0
230
-1.0
 70
     8
 71
     3
 72
    11
 73
     7
 74
     5
 42
0.0000001
 43
0.0000001
 44
0.0000000001
 40
0.0
 40
0.0
 40
0.0
 40
0.0
 40
0.6345840196798191
 40
1.890391237942621
 40
2.537599161340877
 40
3.47078441374853
 40
3.47078441374853
 40
3.47078441374853
 40
3.47078441374853
 10
462.563156404688
 20
395.883766753273
 30
0.0
 10
462.5260895536294
 20
396.0954931145656
 30
0.0
 10
462.4156694228257
 20
396.7262144151604
 30
0.0
 10
461.6431926178229
 20
397.3102381639788
 30
0.0
 10
460.713069049209
 20
397.4662294213533
 30
0.0
 10
460.1855651460303
 20
397.4874513729671
 30
0.0
 10
459.8740864136679
 20
397.4999824396513
 30
0.0
 11
462.563156404688
 21
395.883766753273
 31
0.0
 11
462.3995519288573
 21
396.49689843042
 31
0.0
 11
461.4384240040735
 21
397.3051588350185
 31
0.0
 11
460.805308424141
 21
397.439482170877
 31
0.0
 11
459.8740864136679
 21
397.4999824396513
 31
0.0
  0
SPLINE
  5
1515
100
AcDbEntity
  8
VHH-025
100
AcDbSpline
210
0.0
220
0.0
230
-1.0
 70
     8
 71
     3
 72
    10
 73
     6
 74
     4
 42
0.0000001
 43
0.0000001
 44
0.0000000001
 40
0.0
 40
0.0
 40
0.0
 40
0.0
 40
0.5656918030217481
 40
1.131091204875098
 40
1.98428193914176
 40
1.98428193914176
 40
1.98428193914176
 40
1.98428193914176
 10
451.8885630126597
 20
396.6648841375203
 30
0.0
 10
451.7625908138521
 20
396.8055392487323
 30
0.0
 10
451.5107115301701
 20
397.0867767677537
 30
0.0
 10
450.932506283289
 20
397.4445914560389
 30
0.0
 10
450.4530179476131
 20
397.4791477389563
 30
0.0
 10
450.1646365506394
 20
397.4999311207416
 30
0.0
 11
451.8885630126597
 21
396.6648841375203
 31
0.0
 11
451.4912082645633
 21
397.0675209716168
 31
0.0
 11
451.0058629337227
 21
397.357549234804
 31
0.0
 11
450.1646365506394
 21
397.4999311207416
 31
0.0
  0
SPLINE
  5
1516
100
AcDbEntity
  8
VHH-025
100
AcDbSpline
210
0.0
220
0.0
230
-1.0
 70
     8
 71
     3
 72
    15
 73
    11
 74
     9
 42
0.0000001
 43
0.0000001
 44
0.0000000001
 40
0.0
 40
0.0
 40
0.0
 40
0.0
 40
0.4359904243240473
 40
0.794812201045396
 40
1.153633987719484
 40
1.512391879192243
 40
2.670988118641679
 40
3.240700171742821
 40
3.620272909986447
 40
4.189922926749681
 40
4.189922926749681
 40
4.189922926749681
 40
4.189922926749681
 10
449.2928253419022
 20
401.5000890768938
 30
0.0
 10
449.1461029797318
 20
401.4818414903484
 30
0.0
 10
448.8786275557015
 20
401.4485760707045
 30
0.0
 10
448.5596678579232
 20
401.2124678438876
 30
0.0
 10
448.3495584837991
 20
400.9110393409222
 30
0.0
 10
448.2344948771977
 20
400.2860140369451
 30
0.0
 10
448.284987263618
 20
399.5892982105152
 30
0.0
 10
448.1485018365045
 20
398.8929363795016
 30
0.0
 10
447.936554358651
 20
398.4277974718381
 30
0.0
 10
447.7280746543254
 20
398.1873199087398
 30
0.0
 10
447.6029612745232
 20
398.0430038911058
 30
0.0
 11
449.2928253419022
 21
401.5000890768938
 31
0.0
 11
448.8670184043412
 21
401.4064082249165
 31
0.0
 11
448.5742515381635
 21
401.1989458680468
 31
0.0
 11
448.3735654045495
 21
400.9014930980697
 31
0.0
 11
448.2908022526726
 21
400.5524121828289
 31
0.0
 11
448.230153699872
 21
399.3954044045017
 31
0.0
 11
448.1106197844319
 21
398.838373465946
 31
0.0
 11
447.950920116532
 21
398.4940313690563
 31
0.0
 11
447.6029612745232
 21
398.0430038911058
 31
0.0
  0
SPLINE
  5
1517
100
AcDbEntity
  8
VHH-025
100
AcDbSpline
210
0.0
220
0.0
230
-1.0
 70
     8
 71
     3
 72
    12
 73
     8
 74
     6
 42
0.0000001
 43
0.0000001
 44
0.0000000001
 40
0.0
 40
0.0
 40
0.0
 40
0.0
 40
0.5183577418013518
 40
0.8374683632360886
 40
1.411464127919703
 40
2.281595754333324
 40
3.151727380757142
 40
3.151727380757142
 40
3.151727380757142
 40
3.151727380757142
 10
442.3823672440276
 20
399.5001655304863
 30
0.0
 10
442.555701186826
 20
399.5103777604088
 30
0.0
 10
442.8357427134834
 20
399.5268768281153
 30
0.0
 10
443.3004900820093
 20
399.4190093208753
 30
0.0
 10
443.7884346611337
 20
399.0546962122127
 30
0.0
 10
444.1888942275916
 20
398.3888333916262
 30
0.0
 10
444.5443933182944
 20
397.930643970025
 30
0.0
 10
444.7221428636466
 20
397.7015492592231
 30
0.0
 11
442.3823672440276
 21
399.5001655304863
 31
0.0
 11
442.9007249457854
 21
399.499961781335
 31
0.0
 11
443.2105751223762
 21
399.4236436525639
 31
0.0
 11
443.6828274902937
 21
399.0973786699637
 31
0.0
 11
444.2024851769684
 21
398.3994639645984
 31
0.0
 11
444.7221428636466
 21
397.7015492592231
 31
0.0
  0
ARC
  5
1518
100
AcDbEntity
  8
VHH-025
100
AcDbCircle
 10
437.376223
 20
399.650106
 30
0.0
 40
3.0
100
AcDbArc
 50
0.0
 51
63.262545
  0
LINE
  5
1519
100
AcDbEntity
  8
VHH-025
100
AcDbLine
 10
439.737899
 20
401.500102
 30
0.0
 11
449.290114
 21
401.500089
 31
0.0
  0
LINE
  5
151A
100
AcDbEntity
  8
VHH-025
100
AcDbLine
 10
415.281077
 20
406.731932
 30
0.0
 11
419.376223
 21
406.731932
 31
0.0
  0
LINE
  5
151B
100
AcDbEntity
  8
VHH-025
100
AcDbLine
 10
423.471368
 20
406.731932
 30
0.0
 11
419.376223
 21
406.731932
 31
0.0
  0
ARC
  5
151C
100
AcDbEntity
  8
VHH-025
100
AcDbCircle
 10
419.380106
 20
363.927007
 30
0.0
 40
43.0
100
AcDbArc
 50
63.262545
 51
84.540298
  0
LINE
  5
15B7
100
AcDbEntity
  8
VHH-025
100
AcDbLine
 10
252.873114
 20
513.577798
 30
0.0
 11
450.004157
 21
513.577834
 31
0.0
  0
LINE
  5
15B8
100
AcDbEntity
  8
VHH-025
100
AcDbLine
 10
265.257284
 20
510.9
 30
0.0
 11
439.528366
 21
510.9
 31
0.0
  0
LINE
  5
15B9
100
AcDbEntity
  8
VHH-025
100
AcDbLine
 10
265.257284
 20
510.3
 30
0.0
 11
439.528366
 21
510.3
 31
0.0
  0
LINE
  5
15BA
100
AcDbEntity
  8
VHH-025
100
AcDbLine
 10
244.138065
 20
511.7
 30
0.0
 11
460.644874
 21
511.7
 31
0.0
  0
LINE
  5
15BB
100
AcDbEntity
  8
VHH-025
100
AcDbLine
 10
241.221809
 20
523.0
 30
0.0
 11
463.563842
 21
523.0
 31
0.0
  0
LINE
  5
15BC
100
AcDbEntity
  8
VHH-025
100
AcDbLine
 10
241.195655
 20
522.0
 30
0.0
 11
463.589995
 21
522.0
 31
0.0
  0
SPLINE
  5
15BD
100
AcDbEntity
  8
VHH-025
100
AcDbSpline
210
0.0
220
0.0
230
-1.0
 70
     8
 71
     3
 72
    15
 73
    11
 74
     9
 42
0.0000001
 43
0.0000001
 44
0.0000000001
 40
0.0
 40
0.0
 40
0.0
 40
0.0
 40
8.727930916723018
 40
16.25763323255694
 40
20.36216076943198
 40
21.62307303412697
 40
23.69549543386472
 40
25.38624445710541
 40
45.72281463408984
 40
79.43205808847128
 40
79.43205808847128
 40
79.43205808847128
 40
79.43205808847128
 10
457.5319414762116
 20
585.5000001546819
 30
0.0
 10
456.8331629191493
 20
588.3165902787381
 30
0.0
 10
455.5315387885404
 20
593.5630902384954
 30
0.0
 10
453.6014518315395
 20
600.1571665177066
 30
0.0
 10
451.2950331535545
 20
603.7812058379033
 30
0.0
 10
449.7567793346233
 20
605.7824605104721
 30
0.0
 10
448.067031761379
 20
606.3205618189407
 30
0.0
 10
440.1310090423406
 20
607.1052661239075
 30
0.0
 10
421.5700865526997
 20
609.0216375837567
 30
0.0
 10
403.6020002390428
 20
610.0672750766823
 30
0.0
 10
392.3950157334957
 20
610.7194560033026
 30
0.0
 11
457.5319414762116
 21
585.5000001546819
 31
0.0
 11
455.3666075874307
 21
593.9550641542732
 31
0.0
 11
452.8670854922483
 21
601.0577964637982
 31
0.0
 11
450.6986502521222
 21
604.5427691911441
 31
0.0
 11
449.8628359795539
 21
605.4868635937487
 31
0.0
 11
447.946687618064
 21
606.2763634732259
 31
0.0
 11
446.2705789801794
 21
606.4983817013012
 31
0.0
 11
426.0275609785139
 21
608.446793553981
 31
0.0
 11
392.3950157334957
 21
610.7194560033026
 31
0.0
  0
LINE
  5
15BE
100
AcDbEntity
  8
VHH-025
100
AcDbLine
 10
400.632421
 20
511.7
 30
0.0
 11
412.587945
 21
511.7
 31
0.0
  0
LINE
  5
15BF
100
AcDbEntity
  8
VHH-025
100
AcDbLine
 10
227.531943
 20
585.5
 30
0.0
 11
237.390651
 21
585.5
 31
0.0
  0
SPLINE
  5
15C0
100
AcDbEntity
  8
VHH-025
100
AcDbSpline
210
0.0
220
0.0
230
1.0
 70
    11
 71
     3
 72
    42
 73
    38
 74
     0
 42
0.0000001
 43
0.0000001
 40
0.0
 40
0.0
 40
0.0
 40
0.0
 40
0.2020226795177207
 40
0.2020226795177207
 40
0.6060680385531623
 40
0.6060680385531623
 40
1.010113397588603
 40
1.010113397588603
 40
1.414158756624045
 40
1.414158756624045
 40
1.774897046242743
 40
1.774897046242743
 40
2.130089007394168
 40
2.130089007394168
 40
2.471304605574108
 40
2.471304605574108
 40
2.812520203754048
 40
2.812520203754048
 40
3.071352036479815
 40
3.071352036479815
 40
3.330183869205582
 40
3.330183869205582
 40
3.713842095799154
 40
3.713842095799154
 40
4.097500322392726
 40
4.097500322392726
 40
4.481158548986298
 40
4.481158548986298
 40
4.86481677557987
 40
4.86481677557987
 40
5.248475002173442
 40
5.248475002173442
 40
5.632133228767014
 40
5.632133228767014
 40
6.015791455360586
 40
6.015791455360586
 40
6.283185307179586
 40
6.283185307179586
 40
6.283185307179586
 40
6.283185307179586
 10
134.6417384281257
 20
576.5515412051113
 30
0.0
 10
134.6417384281257
 20
576.1265904103534
 30
0.0
 10
134.6957485138527
 20
575.7013417411021
 30
0.0
 10
135.0148415684861
 20
574.4540960623348
 30
0.0
 10
135.4403466910271
 20
573.6609261076169
 30
0.0
 10
136.6369314878747
 20
572.279003883465
 30
0.0
 10
137.4093446972247
 20
571.6898772556747
 30
0.0
 10
139.1732554480267
 20
570.8036900307938
 30
0.0
 10
140.165946991844
 20
570.5063473105123
 30
0.0
 10
142.105054674038
 20
570.2614637977717
 30
0.0
 10
143.0457179325703
 20
570.2794103879946
 30
0.0
 10
144.84586880406
 20
570.5772000669972
 30
0.0
 10
145.7068181998302
 20
570.8538852357492
 30
0.0
 10
147.2288664375309
 20
571.6154870706045
 30
0.0
 10
147.8958717170089
 20
572.0932424144134
 30
0.0
 10
148.9972643051796
 20
573.2038874728227
 30
0.0
 10
149.4297235863696
 20
573.8380687967951
 30
0.0
 10
149.9381583504446
 20
575.0281355356787
 30
0.0
 10
150.0744930814407
 20
575.5651042954254
 30
0.0
 10
150.1691553449973
 20
576.6515718385575
 30
0.0
 10
150.1289644679754
 20
577.2005818626198
 30
0.0
 10
149.8134491436003
 20
578.5259645525416
 30
0.0
 10
149.4319864236467
 20
579.2857013669658
 30
0.0
 10
148.3510086979977
 20
580.6293372304757
 30
0.0
 10
147.6496136562755
 20
581.2131430493914
 30
0.0
 10
146.0326445944547
 20
582.1273077638193
 30
0.0
 10
145.1157830163019
 20
582.4565872070265
 30
0.0
 10
143.1977017500585
 20
582.8183942672353
 30
0.0
 10
142.1959442274792
 20
582.8493936915688
 30
0.0
 10
140.2488362218509
 20
582.6106613931465
 30
0.0
 10
139.3037244947017
 20
582.3392525337899
 30
0.0
 10
137.6034191137614
 20
581.5317625395232
 30
0.0
 10
136.8491290789015
 20
580.9939434962229
 30
0.0
 10
135.6405744233498
 20
579.7259033370123
 30
0.0
 10
135.1881599654743
 20
578.9936092189332
 30
0.0
 10
134.7362736315162
 20
577.6767025127696
 30
0.0
 10
134.6417384281257
 20
577.1139989950738
 30
0.0
 10
134.6417384281257
 20
576.5515412051113
 30
0.0
  0
SPLINE
  5
15C1
100
AcDbEntity
  8
VHH-025
100
AcDbSpline
210
0.0
220
0.0
230
1.0
 70
    11
 71
     3
 72
    42
 73
    38
 74
     0
 42
0.0000001
 43
0.0000001
 40
0.0
 40
0.0
 40
0.0
 40
0.0
 40
0.2020226795172709
 40
0.2020226795172709
 40
0.6060680385518129
 40
0.6060680385518129
 40
1.010113397586354
 40
1.010113397586354
 40
1.414158756620896
 40
1.414158756620896
 40
1.774897046269892
 40
1.774897046269892
 40
2.130089007588556
 40
2.130089007588556
 40
2.471304605639319
 40
2.471304605639319
 40
2.812520203690082
 40
2.812520203690082
 40
3.071352036382359
 40
3.071352036382359
 40
3.330183869074637
 40
3.330183869074637
 40
3.713842095834065
 40
3.713842095834065
 40
4.097500322593494
 40
4.097500322593494
 40
4.481158549352922
 40
4.481158549352922
 40
4.864816776112351
 40
4.864816776112351
 40
5.24847500287178
 40
5.24847500287178
 40
5.632133229631208
 40
5.632133229631208
 40
6.015791456390637
 40
6.015791456390637
 40
6.283185307179586
 40
6.283185307179586
 40
6.283185307179586
 40
6.283185307179586
 10
94.64173842812579
 20
576.5515412051113
 30
0.0
 10
94.64173842812579
 20
576.1265904103543
 30
0.0
 10
94.69574851385278
 20
575.7013417411049
 30
0.0
 10
95.01484156848437
 20
574.4540960623403
 30
0.0
 10
95.44034669102348
 20
573.6609261076232
 30
0.0
 10
96.6369314878657
 20
572.2790038834723
 30
0.0
 10
97.40934469721379
 20
571.6898772556819
 30
0.0
 10
99.1732554480086
 20
570.8036900308002
 30
0.0
 10
100.165946991824
 20
570.5063473105179
 30
0.0
 10
102.1050546740907
 20
570.2614637977626
 30
0.0
 10
103.0457179327049
 20
570.2794103879955
 30
0.0
 10
104.8458688046803
 20
570.5772000671199
 30
0.0
 10
105.7068182008324
 20
570.853885236082
 30
0.0
 10
107.2288664384332
 20
571.6154870712175
 30
0.0
 10
107.8958717175764
 20
572.0932424149127
 30
0.0
 10
108.9972643052415
 20
573.20388747296
 30
0.0
 10
109.4297235862623
 20
573.838068796685
 30
0.0
 10
109.9381583502954
 20
575.0281355352194
 30
0.0
 10
110.0744930813279
 20
575.565104294887
 30
0.0
 10
110.1691553450027
 20
576.65157183787
 30
0.0
 10
110.1289644680628
 20
577.200581861864
 30
0.0
 10
109.8134491438422
 20
578.5259645520969
 30
0.0
 10
109.4319864237631
 20
579.2857013668749
 30
0.0
 10
108.3510086975866
 20
580.6293372309341
 30
0.0
 10
107.6496136554678
 20
581.2131430500444
 30
0.0
 10
106.0326445927248
 20
582.1273077646024
 30
0.0
 10
105.1157830140482
 20
582.4565872077496
 30
0.0
 10
103.1977017468152
 20
582.8183942675491
 30
0.0
 10
102.1959442237684
 20
582.8493936915397
 30
0.0
 10
100.2488362174563
 20
582.6106613921815
 30
0.0
 10
99.30372449008155
 20
582.3392525322392
 30
0.0
 10
97.60341910909756
 20
581.5317625366646
 30
0.0
 10
96.84912907440503
 20
580.9939434926432
 30
0.0
 10
95.64057441968088
 20
579.7259033320237
 30
0.0
 10
95.18815996244757
 20
578.9936092132498
 30
0.0
 10
94.7362736307814
 20
577.6767025084422
 30
0.0
 10
94.64173842812398
 20
577.1139989929074
 30
0.0
 10
94.64173842812579
 20
576.5515412051113
 30
0.0
  0
LINE
  5
15C2
100
AcDbEntity
  8
VHH-025
100
AcDbLine
 10
115.141738
 20
571.551541
 30
0.0
 11
115.141738
 21
581.551541
 31
0.0
  0
LINE
  5
15C3
100
AcDbEntity
  8
VHH-025
100
AcDbLine
 10
61.685993
 20
587.846433
 30
0.0
 11
61.66373
 21
553.200051
 31
0.0
  0
LINE
  5
15C4
100
AcDbEntity
  8
VHH-025
100
AcDbLine
 10
59.740641
 20
585.941054
 30
0.0
 11
59.601687
 21
554.630639
 31
0.0
  0
LINE
  5
15C5
100
AcDbEntity
  8
VHH-025
100
AcDbLine
 10
68.305977
 20
587.24451
 30
0.0
 11
68.28193
 21
554.456147
 31
0.0
  0
LINE
  5
15C6
100
AcDbEntity
  8
VHH-025
100
AcDbLine
 10
67.607057
 20
587.205642
 30
0.0
 11
67.586061
 21
554.53208
 31
0.0
  0
LINE
  5
15C7
100
AcDbEntity
  8
VHH-025
100
AcDbLine
 10
129.641738
 20
571.551541
 30
0.0
 11
129.641738
 21
581.551541
 31
0.0
  0
LINE
  5
15C8
100
AcDbEntity
  8
VHH-025
100
AcDbLine
 10
85.892826
 20
604.476283
 30
0.0
 11
85.892826
 21
558.396587
 31
0.0
  0
LINE
  5
15C9
100
AcDbEntity
  8
VHH-025
100
AcDbLine
 10
82.392826
 20
610.719456
 30
0.0
 11
82.392826
 21
543.217767
 31
0.0
  0
LWPOLYLINE
  5
15CA
100
AcDbEntity
  8
VHH-025
100
AcDbPolyline
 90
        3
 70
     0
 43
0.0
 10
227.531943
 20
585.5
 10
225.295501
 20
585.5
 10
227.579073
 20
541.885357
  0
LINE
  5
15CB
100
AcDbEntity
  8
VHH-025
100
AcDbLine
 10
158.895017
 20
604.476283
 30
0.0
 11
158.895017
 21
558.396587
 31
0.0
  0
LINE
  5
15CC
100
AcDbEntity
  8
VHH-025
100
AcDbLine
 10
162.395017
 20
610.719456
 30
0.0
 11
162.395017
 21
543.217767
 31
0.0
  0
LINE
  5
15CD
100
AcDbEntity
  8
VHH-025
100
AcDbLine
 10
220.409975
 20
604.207869
 30
0.0
 11
222.689497
 21
523.0
 31
0.0
  0
SPLINE
  5
15CE
100
AcDbEntity
  8
VHH-025
100
AcDbSpline
210
0.0
220
0.0
230
1.0
 70
     8
 71
     3
 72
    13
 73
     9
 74
     7
 42
0.0000001
 43
0.0000001
 44
0.0000000001
 40
0.0
 40
0.0
 40
0.0
 40
0.0
 40
3.28447827110949
 40
5.848013776662059
 40
8.811210366641562
 40
13.31059109350662
 40
22.19952180646464
 40
44.15308546549833
 40
44.15308546549833
 40
44.15308546549833
 40
44.15308546549833
 10
162.3950169921636
 20
543.2177674662393
 30
0.0
 10
162.2468387613486
 20
542.1136587897731
 30
0.0
 10
161.9830074116849
 20
540.1477932190669
 30
0.0
 10
160.1848680579641
 20
537.7197369067358
 30
0.0
 10
157.3203667871984
 20
535.7983223500505
 30
0.0
 10
151.7129436358847
 20
535.6006041290059
 30
0.0
 10
140.0490772125602
 20
535.5017952914064
 30
0.0
 10
129.7366889706947
 20
535.4672750274934
 30
0.0
 10
122.3963724251543
 20
535.4427036422416
 30
0.0
 11
162.3950169921636
 21
543.2177674662393
 31
0.0
 11
161.657250892088
 21
540.0172208418375
 31
0.0
 11
160.1693640624389
 21
537.929660765963
 31
0.0
 11
157.6919282876524
 21
536.3039775210859
 31
0.0
 11
153.237758786402
 21
535.667737802571
 31
0.0
 11
144.3497087265595
 21
535.5426164474706
 31
0.0
 11
122.3963724251543
 21
535.4427036422416
 31
0.0
  0
SPLINE
  5
15CF
100
AcDbEntity
  8
VHH-025
100
AcDbSpline
210
0.0
220
0.0
230
1.0
 70
     8
 71
     3
 72
    13
 73
     9
 74
     0
 42
0.0000001
 43
0.0000001
 40
84.6955679326532
 40
84.6955679326532
 40
84.6955679326532
 40
84.6955679326532
 40
85.81548028374967
 40
86.6565862794542
 40
87.78626872105837
 40
90.14984869879972
 40
105.9639654671869
 40
122.7164926965437
 40
122.7164926965437
 40
122.7164926965437
 40
122.7164926965437
 10
158.8950169921636
 20
558.3965874588525
 30
0.0
 10
158.8538805264188
 20
558.0189825823022
 30
0.0
 10
158.7768211140492
 20
557.357220083491
 30
0.0
 10
158.173406393228
 20
556.4939072621277
 30
0.0
 10
156.9926002923903
 20
555.5768441575287
 30
0.0
 10
150.2560248967647
 20
555.7075542287334
 30
0.0
 10
138.9215830794592
 20
555.8663416266058
 30
0.0
 10
128.0079676838095
 20
556.0371169104114
 30
0.0
 10
122.393921634145
 20
556.1249650040704
 30
0.0
  0
LINE
  5
15D0
100
AcDbEntity
  8
VHH-025
100
AcDbLine
 10
146.574721
 20
511.7
 30
0.0
 11
170.632422
 21
511.7
 31
0.0
  0
LINE
  5
15D1
100
AcDbEntity
  8
VHH-025
100
AcDbLine
 10
103.641738
 20
579.801541
 30
0.0
 11
101.141738
 21
579.801541
 31
0.0
  0
LINE
  5
15D2
100
AcDbEntity
  8
VHH-025
100
AcDbLine
 10
121.257438
 20
579.954619
 30
0.0
 11
118.545382
 21
579.954619
 31
0.0
  0
LINE
  5
15D3
100
AcDbEntity
  8
VHH-025
100
AcDbLine
 10
127.457438
 20
579.954619
 30
0.0
 11
124.745382
 21
579.954619
 31
0.0
  0
LINE
  5
15D4
100
AcDbEntity
  8
VHH-025
100
AcDbLine
 10
113.392826
 20
504.215399
 30
0.0
 11
131.392826
 21
504.215399
 31
0.0
  0
LINE
  5
15D5
100
AcDbEntity
  8
VHH-025
100
AcDbLine
 10
115.891738
 20
570.801541
 30
0.0
 11
128.891738
 21
570.801541
 31
0.0
  0
LINE
  5
15D6
100
AcDbEntity
  8
VHH-025
100
AcDbLine
 10
122.392826
 20
511.7
 30
0.0
 11
134.486697
 21
511.7
 31
0.0
  0
LINE
  5
15D7
100
AcDbEntity
  8
VHH-025
100
AcDbLine
 10
126.258133
 20
550.755023
 30
0.0
 11
124.132885
 21
546.557122
 31
0.0
  0
LINE
  5
15D8
100
AcDbEntity
  8
VHH-025
100
AcDbLine
 10
123.888518
 20
576.551541
 30
0.0
 11
127.011147
 21
576.557697
 31
0.0
  0
LINE
  5
15D9
100
AcDbEntity
  8
VHH-025
100
AcDbLine
 10
123.442227
 20
573.154619
 30
0.0
 11
126.154284
 21
573.154619
 31
0.0
  0
LINE
  5
15DA
100
AcDbEntity
  8
VHH-025
100
AcDbLine
 10
122.545767
 20
541.006622
 30
0.0
 11
125.383557
 21
541.006622
 31
0.0
  0
LINE
  5
15DB
100
AcDbEntity
  8
VHH-025
100
AcDbLine
 10
122.079391
 20
540.205033
 30
0.0
 11
124.52179
 21
544.402934
 31
0.0
  0
SPLINE
  5
15DC
100
AcDbEntity
  8
VHH-025
100
AcDbSpline
210
0.0
220
0.0
230
1.0
 70
     8
 71
     3
 72
    12
 73
     8
 74
     0
 42
0.0000001
 43
0.0000001
 40
1.820596868471746
 40
1.820596868471746
 40
1.820596868471746
 40
1.820596868471746
 40
4.503295473557569
 40
6.216955522489968
 40
7.774552440697402
 40
9.232972112989187
 40
10.8164521343443
 40
10.8164521343443
 40
10.8164521343443
 40
10.8164521343443
 10
114.7858473207297
 20
548.4333369542223
 30
0.0
 10
115.2486677867373
 20
548.447997449321
 30
0.0
 10
115.9606529159491
 20
548.5817068106921
 30
0.0
 10
116.669744321919
 20
549.3649230906016
 30
0.0
 10
116.7231778522373
 20
550.2671833980116
 30
0.0
 10
116.0013389113601
 20
550.7518270163959
 30
0.0
 10
115.4920808117194
 20
550.7539290813451
 30
0.0
 10
115.2269833043364
 20
550.7550233244778
 30
0.0
  0
SPLINE
  5
15DD
100
AcDbEntity
  8
VHH-025
100
AcDbSpline
210
0.0
220
0.0
230
1.0
 70
     8
 71
     3
 72
    13
 73
     9
 74
     7
 42
0.0000001
 43
0.0000001
 44
0.0000000001
 40
0.0
 40
0.0
 40
0.0
 40
0.0
 40
3.284478271109898
 40
5.848013776661412
 40
8.811210366642434
 40
13.31059109350569
 40
22.19952180646371
 40
44.15308546549741
 40
44.15308546549741
 40
44.15308546549741
 40
44.15308546549741
 10
82.39282627612466
 20
543.2177674662393
 30
0.0
 10
82.54100450694062
 20
542.1136587897732
 30
0.0
 10
82.80483585660586
 20
540.1477932190678
 30
0.0
 10
84.60297521032392
 20
537.7197369067349
 30
0.0
 10
87.46747648109119
 20
535.7983223500514
 30
0.0
 10
93.07489963240376
 20
535.600604129005
 30
0.0
 10
104.7387660557284
 20
535.5017952914071
 30
0.0
 10
115.0511542975937
 20
535.4672750274938
 30
0.0
 10
122.3914708431339
 20
535.4427036422416
 30
0.0
 11
82.39282627612466
 21
543.2177674662393
 31
0.0
 11
83.13059237620199
 21
540.0172208418375
 31
0.0
 11
84.61847920584933
 21
537.929660765963
 31
0.0
 11
87.09591498063764
 21
536.3039775210859
 31
0.0
 11
91.55008448188619
 21
535.667737802571
 31
0.0
 11
100.4381345417286
 21
535.5426164474706
 31
0.0
 11
122.3914708431339
 21
535.4427036422416
 31
0.0
  0
SPLINE
  5
15DE
100
AcDbEntity
  8
VHH-025
100
AcDbSpline
210
0.0
220
0.0
230
1.0
 70
     8
 71
     3
 72
    13
 73
     9
 74
     0
 42
0.0000001
 43
0.0000001
 40
84.6955679326532
 40
84.6955679326532
 40
84.6955679326532
 40
84.6955679326532
 40
85.81548028374967
 40
86.6565862794542
 40
87.78626872105837
 40
90.14984869879972
 40
105.9639654671869
 40
122.7164926965437
 40
122.7164926965437
 40
122.7164926965437
 40
122.7164926965437
 10
85.89282627612465
 20
558.3965874588525
 30
0.0
 10
85.93396274186943
 20
558.0189825823022
 30
0.0
 10
86.01102215423907
 20
557.357220083491
 30
0.0
 10
86.61443687506016
 20
556.4939072621277
 30
0.0
 10
87.79524297589977
 20
555.5768441575287
 30
0.0
 10
94.53181837152351
 20
555.7075542287334
 30
0.0
 10
105.866260188829
 20
555.8663416266058
 30
0.0
 10
116.7798755844805
 20
556.0371169104114
 30
0.0
 10
122.393921634145
 20
556.1249650040704
 30
0.0
  0
LINE
  5
15DF
100
AcDbEntity
  8
VHH-025
100
AcDbLine
 10
110.298956
 20
511.7
 30
0.0
 11
122.392826
 21
511.7
 31
0.0
  0
SPLINE
  5
15E0
100
AcDbEntity
  8
VHH-025
100
AcDbSpline
210
0.0
220
0.0
230
1.0
 70
    11
 71
     3
 72
    15
 73
    11
 74
     9
 42
0.0000001
 43
0.0000001
 44
0.0000000001
 40
0.0
 40
0.0
 40
0.0
 40
0.0
 40
0.5147647394070095
 40
2.457789820816183
 40
3.944434646997511
 40
5.591791425460542
 40
7.104516291264255
 40
9.337163693808058
 40
10.73578930127875
 40
12.20445453441568
 40
12.20445453441568
 40
12.20445453441568
 40
12.20445453441568
 10
111.9457297939216
 20
542.8242162485217
 30
0.0
 10
112.0100306853479
 20
542.9825929530051
 30
0.0
 10
112.3170409840705
 20
543.7387765497723
 30
0.0
 10
113.5702688699406
 20
544.7030339837338
 30
0.0
 10
115.4083780031749
 20
543.9774958629274
 30
0.0
 10
115.7414268179012
 20
542.2474845534892
 30
0.0
 10
114.980112804404
 20
540.5484929961627
 30
0.0
 10
112.8912166245035
 20
539.8077180773005
 30
0.0
 10
111.6031665736427
 20
541.3563404946065
 30
0.0
 10
111.8296975548448
 20
542.3270206935681
 30
0.0
 10
111.9457297939216
 20
542.8242162485217
 30
0.0
 11
111.9457297939216
 21
542.8242162485217
 31
0.0
 11
112.1594196912838
 21
543.2925317027852
 31
0.0
 11
113.764061529363
 21
544.3881917953644
 31
0.0
 11
115.1454224446124
 21
543.838687599718
 31
0.0
 11
115.5682888404417
 21
542.2465292009315
 31
0.0
 11
114.9198933223897
 21
540.8798105862229
 31
0.0
 11
112.7632764036688
 21
540.3021273772123
 31
0.0
 11
111.8470611571183
 21
541.3588691677464
 31
0.0
 11
111.9457297939216
 21
542.8242162485217
 31
0.0
  0
SPLINE
  5
15E1
100
AcDbEntity
  8
VHH-025
100
AcDbSpline
210
0.0
220
0.0
230
-1.0
 70
     8
 71
     3
 72
    12
 73
     8
 74
     6
 42
0.0000001
 43
0.0000001
 44
0.0000000001
 40
0.0
 40
0.0
 40
0.0
 40
0.0
 40
1.411106911324726
 40
2.125038086020586
 40
2.805834388316208
 40
3.535044224462101
 40
4.326784235140562
 40
4.326784235140562
 40
4.326784235140562
 40
4.326784235140562
 10
109.48530391443
 20
548.8603060096097
 30
0.0
 10
109.9614932536555
 20
548.869359830047
 30
0.0
 10
110.6786043909409
 20
548.8829943130893
 30
0.0
 10
111.5242461383068
 20
549.4608007999154
 30
0.0
 10
111.5248440499801
 20
550.2991669757189
 30
0.0
 10
110.8340332055089
 20
550.7486213022876
 30
0.0
 10
110.3247363191087
 20
550.7528316180971
 30
0.0
 10
110.0596186210341
 20
550.7550233244778
 30
0.0
 11
109.48530391443
 21
548.8603060096097
 31
0.0
 11
110.8800722495425
 21
549.0744181450804
 31
0.0
 11
111.424194761289
 21
549.5366176846878
 31
0.0
 11
111.4216030751276
 21
550.2174090538915
 31
0.0
 11
110.8462760314241
 21
550.6654556786029
 31
0.0
 11
110.0596186210341
 21
550.7550233244778
 31
0.0
  0
SPLINE
  5
15E2
100
AcDbEntity
  8
VHH-025
100
AcDbSpline
210
0.0
220
0.0
230
1.0
 70
     8
 71
     3
 72
    12
 73
     8
 74
     6
 42
0.0000001
 43
0.0000001
 44
0.0000000001
 40
0.0
 40
0.0
 40
0.0
 40
0.0
 40
1.006217164968555
 40
1.679832645748139
 40
2.56445690978789
 40
3.47269837767135
 40
4.209033191014698
 40
4.209033191014698
 40
4.209033191014698
 40
4.209033191014698
 10
109.9018746029605
 20
548.8603060096097
 30
0.0
 10
110.2547263476816
 20
548.8515193790126
 30
0.0
 10
110.8437958850813
 20
548.8368505088751
 30
0.0
 10
111.4373152780634
 20
548.0873096992517
 30
0.0
 10
111.2361528025711
 20
547.1855605123107
 30
0.0
 10
110.5287056803926
 20
546.6137757371591
 30
0.0
 10
109.9735500559115
 20
546.5746431053871
 30
0.0
 10
109.7249872997808
 20
546.5571220457436
 30
0.0
 11
109.9018746029605
 21
548.8603060096097
 31
0.0
 11
110.8885666376982
 21
548.6630452388958
 31
0.0
 11
111.2973342758696
 21
548.1276324692221
 31
0.0
 11
111.1515879364897
 21
547.2550970297784
 31
0.0
 11
110.4516014842092
 21
546.6763729758399
 31
0.0
 11
109.7249872997808
 21
546.5571220457436
 31
0.0
  0
SPLINE
  5
15E3
100
AcDbEntity
  8
VHH-025
100
AcDbSpline
210
0.0
220
0.0
230
1.0
 70
     8
 71
     3
 72
    12
 73
     8
 74
     6
 42
0.0000001
 43
0.0000001
 44
0.0000000001
 40
0.0
 40
0.0
 40
0.0
 40
0.0
 40
1.006217164968555
 40
1.679832645748139
 40
2.56445690978789
 40
3.47269837767135
 40
4.209033191014698
 40
4.209033191014698
 40
4.209033191014698
 40
4.209033191014698
 10
108.5829504867151
 20
542.5082166641545
 30
0.0
 10
108.9358022314362
 20
542.4994300335574
 30
0.0
 10
109.5248717688359
 20
542.4847611634199
 30
0.0
 10
110.118391161818
 20
541.7352203537965
 30
0.0
 10
109.9172286863258
 20
540.8334711668556
 30
0.0
 10
109.2097815641472
 20
540.2616863917039
 30
0.0
 10
108.6546259396661
 20
540.2225537599319
 30
0.0
 10
108.4060631835354
 20
540.2050327002885
 30
0.0
 11
108.5829504867151
 21
542.5082166641545
 31
0.0
 11
109.5696425214528
 21
542.3109558934406
 31
0.0
 11
109.9784101596242
 21
541.775543123767
 31
0.0
 11
109.8326638202443
 21
540.9030076843232
 31
0.0
 11
109.1326773679638
 21
540.3242836303848
 31
0.0
 11
108.4060631835354
 21
540.2050327002885
 31
0.0
  0
SPLINE
  5
15E4
100
AcDbEntity
  8
VHH-025
100
AcDbSpline
210
0.0
220
0.0
230
-1.0
 70
     8
 71
     3
 72
    12
 73
     8
 74
     6
 42
0.0000001
 43
0.0000001
 44
0.0000000001
 40
0.0
 40
0.0
 40
0.0
 40
0.0
 40
1.411106911324726
 40
2.125038086020586
 40
2.805834388316208
 40
3.535044224462101
 40
4.326784235140562
 40
4.326784235140562
 40
4.326784235140562
 40
4.326784235140562
 10
108.1663797981846
 20
542.5082166641545
 30
0.0
 10
108.6425691374101
 20
542.5172704845919
 30
0.0
 10
109.3596802746955
 20
542.5309049676341
 30
0.0
 10
110.2053220220614
 20
543.1087114544602
 30
0.0
 10
110.2059199337347
 20
543.9470776302637
 30
0.0
 10
109.5151090892636
 20
544.3965319568325
 30
0.0
 10
109.0058122028633
 20
544.400742272642
 30
0.0
 10
108.7406945047887
 20
544.4029339790226
 30
0.0
 11
108.1663797981846
 21
542.5082166641545
 31
0.0
 11
109.5611481332971
 21
542.7223287996253
 31
0.0
 11
110.1052706450436
 21
543.1845283392326
 31
0.0
 11
110.1026789588822
 21
543.8653197084363
 31
0.0
 11
109.5273519151787
 21
544.3133663331478
 31
0.0
 11
108.7406945047887
 21
544.4029339790226
 31
0.0
  0
SPLINE
  5
15E5
100
AcDbEntity
  8
VHH-025
100
AcDbSpline
210
0.0
220
0.0
230
1.0
 70
     8
 71
     3
 72
    12
 73
     8
 74
     0
 42
0.0000001
 43
0.0000001
 40
0.3004138362153372
 40
0.3004138362153372
 40
0.3004138362153372
 40
0.3004138362153372
 40
0.6531836346659445
 40
2.201425060069765
 40
3.775834883110177
 40
5.170639203720888
 40
5.549375987942882
 40
5.549375987942882
 40
5.549375987942882
 40
5.549375987942882
 10
116.0041039518955
 20
546.5571220457436
 30
0.0
 10
115.9941896631107
 20
546.6152425106716
 30
0.0
 10
115.9469790160137
 20
546.9276352444962
 30
0.0
 10
115.9938109858949
 20
547.4814488339257
 30
0.0
 10
115.8518806833499
 20
548.3627740513143
 30
0.0
 10
115.2157443803616
 20
548.434272443515
 30
0.0
 10
114.907321431182
 20
548.4320828407922
 30
0.0
 10
114.7858473207297
 20
548.4333369542223
 30
0.0
  0
LINE
  5
15E6
100
AcDbEntity
  8
VHH-025
100
AcDbLine
 10
104.253905
 20
511.7
 30
0.0
 11
110.298956
 21
511.7
 31
0.0
  0
LINE
  5
15E7
100
AcDbEntity
  8
VHH-025
100
AcDbLine
 10
103.891738
 20
576.801541
 30
0.0
 11
105.391738
 21
576.801541
 31
0.0
  0
LINE
  5
15E8
100
AcDbEntity
  8
VHH-025
100
AcDbLine
 10
102.568515
 20
573.374765
 30
0.0
 11
105.568515
 21
576.374765
 31
0.0
  0
LINE
  5
15E9
100
AcDbEntity
  8
VHH-025
100
AcDbLine
 10
106.212425
 20
551.255023
 30
0.0
 11
103.814229
 21
539.705033
 31
0.0
  0
LINE
  5
15EA
100
AcDbEntity
  8
VHH-025
100
AcDbLine
 10
101.231852
 20
511.7
 30
0.0
 11
104.253905
 21
511.7
 31
0.0
  0
LINE
  5
15EB
100
AcDbEntity
  8
VHH-025
100
AcDbLine
 10
98.210931
 20
511.7
 30
0.0
 11
101.231852
 21
511.7
 31
0.0
  0
LINE
  5
15EC
100
AcDbEntity
  8
VHH-025
100
AcDbLine
 10
100.891738
 20
579.551541
 30
0.0
 11
100.891738
 21
576.801541
 31
0.0
  0
LINE
  5
15ED
100
AcDbEntity
  8
VHH-025
100
AcDbLine
 10
103.891738
 20
576.801541
 30
0.0
 11
103.891738
 21
579.551541
 31
0.0
  0
ARC
  5
15EE
100
AcDbEntity
  8
VHH-025
100
AcDbCircle
 10
102.391738
 20
573.551541
 30
0.0
 40
0.25
100
AcDbArc
 50
225.0
 51
315.0
  0
ARC
  5
15EF
100
AcDbEntity
  8
VHH-025
100
AcDbCircle
 10
99.391738
 20
576.551541
 30
0.0
 40
0.25
100
AcDbArc
 50
90.0
 51
225.0
  0
LINE
  5
15F0
100
AcDbEntity
  8
VHH-025
100
AcDbLine
 10
102.214962
 20
573.374765
 30
0.0
 11
99.214962
 21
576.374765
 31
0.0
  0
LINE
  5
15F1
100
AcDbEntity
  8
VHH-025
100
AcDbLine
 10
100.891738
 20
576.801541
 30
0.0
 11
99.391738
 21
576.801541
 31
0.0
  0
LINE
  5
15F2
100
AcDbEntity
  8
VHH-025
100
AcDbLine
 10
103.461881
 20
551.255023
 30
0.0
 11
101.063685
 21
539.705033
 31
0.0
  0
LINE
  5
15F3
100
AcDbEntity
  8
VHH-025
100
AcDbLine
 10
101.104271
 20
551.255023
 30
0.0
 11
98.706075
 21
539.705033
 31
0.0
  0
LINE
  5
15F4
100
AcDbEntity
  8
VHH-025
100
AcDbLine
 10
99.139596
 20
551.255023
 30
0.0
 11
96.7414
 21
539.705033
 31
0.0
  0
LINE
  5
15F5
100
AcDbEntity
  8
VHH-025
100
AcDbLine
 10
107.771174
 20
546.557122
 30
0.0
 11
109.724987
 21
546.557122
 31
0.0
  0
LINE
  5
15F6
100
AcDbEntity
  8
VHH-025
100
AcDbLine
 10
108.64281
 20
550.755023
 30
0.0
 11
107.771174
 21
546.557122
 31
0.0
  0
LINE
  5
15F7
100
AcDbEntity
  8
VHH-025
100
AcDbLine
 10
108.64281
 20
550.755023
 30
0.0
 11
110.059619
 21
550.755023
 31
0.0
  0
LINE
  5
15F8
100
AcDbEntity
  8
VHH-025
100
AcDbLine
 10
108.249399
 20
548.860306
 30
0.0
 11
109.901875
 21
548.860306
 31
0.0
  0
ARC
  5
15F9
100
AcDbEntity
  8
VHH-025
100
AcDbCircle
 10
105.391738
 20
576.551541
 30
0.0
 40
0.25
100
AcDbArc
 50
315.0
 51
90.0
  0
LINE
  5
15FA
100
AcDbEntity
  8
VHH-025
100
AcDbLine
 10
107.323886
 20
544.402934
 30
0.0
 11
106.45225
 21
540.205033
 31
0.0
  0
LINE
  5
15FB
100
AcDbEntity
  8
VHH-025
100
AcDbLine
 10
107.323886
 20
544.402934
 30
0.0
 11
108.740695
 21
544.402934
 31
0.0
  0
LINE
  5
15FC
100
AcDbEntity
  8
VHH-025
100
AcDbLine
 10
106.45225
 20
540.205033
 30
0.0
 11
108.406063
 21
540.205033
 31
0.0
  0
LINE
  5
15FD
100
AcDbEntity
  8
VHH-025
100
AcDbLine
 10
106.930474
 20
542.508217
 30
0.0
 11
108.58295
 21
542.508217
 31
0.0
  0
LINE
  5
15FE
100
AcDbEntity
  8
VHH-025
100
AcDbLine
 10
113.750965
 20
550.755023
 30
0.0
 11
115.226983
 21
550.755023
 31
0.0
  0
LINE
  5
15FF
100
AcDbEntity
  8
VHH-025
100
AcDbLine
 10
112.879328
 20
546.557122
 30
0.0
 11
113.750965
 21
550.755023
 31
0.0
  0
LINE
  5
1600
100
AcDbEntity
  8
VHH-025
100
AcDbLine
 10
113.268899
 20
548.433337
 30
0.0
 11
114.785847
 21
548.433337
 31
0.0
  0
ARC
  5
1601
100
AcDbEntity
  8
VHH-025
100
AcDbCircle
 10
115.891738
 20
571.551541
 30
0.0
 40
0.75
100
AcDbArc
 50
180.0
 51
270.0
  0
LINE
  5
1602
100
AcDbEntity
  8
VHH-025
100
AcDbLine
 10
120.964143
 20
550.755023
 30
0.0
 11
121.652007
 21
546.557122
 31
0.0
  0
LINE
  5
1603
100
AcDbEntity
  8
VHH-025
100
AcDbLine
 10
120.658893
 20
550.755023
 30
0.0
 11
120.964143
 21
550.755023
 31
0.0
  0
LINE
  5
1604
100
AcDbEntity
  8
VHH-025
100
AcDbLine
 10
118.216495
 20
546.557122
 30
0.0
 11
120.658893
 21
550.755023
 31
0.0
  0
LINE
  5
1605
100
AcDbEntity
  8
VHH-025
100
AcDbLine
 10
118.68287
 20
547.358711
 30
0.0
 11
121.52066
 21
547.358711
 31
0.0
  0
LINE
  5
1606
100
AcDbEntity
  8
VHH-025
100
AcDbLine
 10
123.248678
 20
550.755023
 30
0.0
 11
123.615086
 21
546.557122
 31
0.0
  0
LINE
  5
1607
100
AcDbEntity
  8
VHH-025
100
AcDbLine
 10
123.615086
 20
546.557122
 30
0.0
 11
124.132885
 21
546.557122
 31
0.0
  0
LINE
  5
1608
100
AcDbEntity
  8
VHH-025
100
AcDbLine
 10
120.26362
 20
573.408215
 30
0.0
 11
120.791736
 21
576.048792
 31
0.0
  0
LINE
  5
1609
100
AcDbEntity
  8
VHH-025
100
AcDbLine
 10
117.688518
 20
576.551541
 30
0.0
 11
120.811147
 21
576.557697
 31
0.0
  0
CIRCLE
  5
160A
100
AcDbEntity
  8
VHH-025
100
AcDbCircle
 10
121.524775
 20
573.154619
 30
0.0
 40
0.025
  0
LINE
  5
160B
100
AcDbEntity
  8
VHH-025
100
AcDbLine
 10
123.71727
 20
576.107147
 30
0.0
 11
123.188631
 21
573.463956
 31
0.0
  0
LINE
  5
160C
100
AcDbEntity
  8
VHH-025
100
AcDbLine
 10
117.51727
 20
576.107147
 30
0.0
 11
116.988631
 21
573.463956
 31
0.0
  0
LINE
  5
160D
100
AcDbEntity
  8
VHH-025
100
AcDbLine
 10
117.242227
 20
573.154619
 30
0.0
 11
119.954284
 21
573.154619
 31
0.0
  0
LINE
  5
160E
100
AcDbEntity
  8
VHH-025
100
AcDbLine
 10
118.111548
 20
544.402934
 30
0.0
 11
119.832479
 21
540.205033
 31
0.0
  0
LINE
  5
160F
100
AcDbEntity
  8
VHH-025
100
AcDbLine
 10
121.03035
 20
544.402934
 30
0.0
 11
120.158713
 21
540.205033
 31
0.0
  0
LINE
  5
1610
100
AcDbEntity
  8
VHH-025
100
AcDbLine
 10
117.847124
 20
544.402934
 30
0.0
 11
118.111548
 21
544.402934
 31
0.0
  0
LINE
  5
1611
100
AcDbEntity
  8
VHH-025
100
AcDbLine
 10
119.832479
 20
540.205033
 30
0.0
 11
120.158713
 21
540.205033
 31
0.0
  0
LINE
  5
1612
100
AcDbEntity
  8
VHH-025
100
AcDbLine
 10
117.847124
 20
544.402934
 30
0.0
 11
116.975487
 21
540.205033
 31
0.0
  0
LINE
  5
1613
100
AcDbEntity
  8
VHH-025
100
AcDbLine
 10
120.982396
 20
577.002091
 30
0.0
 11
121.511034
 21
579.645282
 31
0.0
  0
SPLINE
  5
1614
100
AcDbEntity
  8
VHH-025
100
AcDbSpline
210
0.0
220
0.0
230
1.0
 70
     8
 71
     3
 72
    20
 73
    16
 74
     0
 42
0.0000001
 43
0.0000001
 40
0.0
 40
0.0
 40
0.0
 40
0.0
 40
0.3918367249981683
 40
0.3918367249981683
 40
0.6525501684806338
 40
0.6525501684806338
 40
1.182440120300543
 40
1.182440120300543
 40
1.712330072120452
 40
1.712330072120452
 40
2.006270928035041
 40
2.006270928035041
 40
2.315289501487082
 40
2.315289501487082
 40
2.616402084268149
 40
2.616402084268149
 40
2.616402084268149
 40
2.616402084268149
 10
66.49699235581374
 20
553.4448793183233
 30
0.0
 10
66.62758971385392
 20
553.4652047948707
 30
0.0
 10
66.73977175252639
 20
553.4834693973912
 30
0.0
 10
66.88938521679211
 20
553.5193358176961
 30
0.0
 10
66.93909146236274
 20
553.5348291204504
 30
0.0
 10
67.0619079192702
 20
553.5841206296567
 30
0.0
 10
67.14651172047798
 20
553.6366299244705
 30
0.0
 10
67.30725242703647
 20
553.7782206218085
 30
0.0
 10
67.38053986794421
 20
553.8656042831976
 30
0.0
 10
67.46496316270077
 20
554.0052175410233
 30
0.0
 10
67.48962535382543
 20
554.0559666098329
 30
0.0
 10
67.52811736113926
 20
554.1581088020198
 30
0.0
 10
67.54082857861522
 20
554.2062883098083
 30
0.0
 10
67.56528925811562
 20
554.3462616220836
 30
0.0
 10
67.57511313669329
 20
554.4317513268857
 30
0.0
 10
67.58606103217516
 20
554.5320804752996
 30
0.0
  0
SPLINE
  5
1615
100
AcDbEntity
  8
VHH-025
100
AcDbSpline
210
0.0
220
0.0
230
1.0
 70
     8
 71
     3
 72
    11
 73
     7
 74
     5
 42
0.0000001
 43
0.0000001
 44
0.0000000001
 40
0.0
 40
0.0
 40
0.0
 40
0.0
 40
0.6629926957091156
 40
1.324539577353706
 40
2.135160944774346
 40
2.616402084267626
 40
2.616402084267626
 40
2.616402084267626
 40
2.616402084267626
 10
66.6046406874948
 20
552.7532061030792
 30
0.0
 10
66.8256130694474
 20
552.787597066529
 30
0.0
 10
67.26707595024925
 20
552.8563039957114
 30
0.0
 10
67.86535807468313
 20
553.282164396186
 30
0.0
 10
68.21746362632282
 20
553.8653584337148
 30
0.0
 10
68.26443335296977
 20
554.2958003102681
 30
0.0
 10
68.28193038895642
 20
554.4561473580765
 30
0.0
 11
66.6046406874948
 21
552.7532061030792
 31
0.0
 11
67.24993926515617
 21
552.9053542553251
 31
0.0
 11
67.79387283458436
 21
553.2818918346752
 31
0.0
 11
68.20364337253977
 21
553.9813166751996
 31
0.0
 11
68.28193038895642
 21
554.4561473580765
 31
0.0
  0
LWPOLYLINE
  5
1616
100
AcDbEntity
  8
VHH-025
100
AcDbPolyline
 90
        4
 70
     1
 43
0.0
 10
64.112031
 20
566.035148
 10
64.862309
 20
566.035148
 10
64.862309
 20
561.770476
 10
64.112031
 20
561.770476
  0
LINE
  5
1617
100
AcDbEntity
  8
VHH-025
100
AcDbLine
 10
62.197706
 20
511.7
 30
0.0
 11
74.15323
 21
511.7
 31
0.0
  0
LINE
  5
1618
100
AcDbEntity
  8
VHH-025
100
AcDbLine
 10
66.568692
 20
553.452282
 30
0.0
 11
61.66373
 21
553.200051
 31
0.0
  0
CIRCLE
  5
1619
100
AcDbEntity
  8
VHH-025
100
AcDbCircle
 10
64.581312
 20
577.554525
 30
0.0
 40
1.51318
  0
LINE
  5
161A
100
AcDbEntity
  8
VHH-025
100
AcDbLine
 10
74.15323
 20
511.7
 30
0.0
 11
98.210931
 21
511.7
 31
0.0
  0
SPLINE
  5
161B
100
AcDbEntity
  8
VHH-025
100
AcDbSpline
210
0.0
220
0.0
230
1.0
 70
     8
 71
     3
 72
    12
 73
     8
 74
     0
 42
0.0000001
 43
0.0000001
 40
1.820596868471746
 40
1.820596868471746
 40
1.820596868471746
 40
1.820596868471746
 40
4.503295473557569
 40
6.216955522489968
 40
7.774552440697402
 40
9.232972112989187
 40
10.8164521343443
 40
10.8164521343443
 40
10.8164521343443
 40
10.8164521343443
 10
140.8552435715855
 20
548.4333369542223
 30
0.0
 10
141.3180640375931
 20
548.447997449321
 30
0.0
 10
142.0300491668049
 20
548.5817068106921
 30
0.0
 10
142.7391405727748
 20
549.3649230906016
 30
0.0
 10
142.792574103093
 20
550.2671833980116
 30
0.0
 10
142.0707351622158
 20
550.7518270163959
 30
0.0
 10
141.5614770625752
 20
550.7539290813451
 30
0.0
 10
141.2963795551922
 20
550.7550233244778
 30
0.0
  0
SPLINE
  5
161C
100
AcDbEntity
  8
VHH-025
100
AcDbSpline
210
0.0
220
0.0
230
1.0
 70
     8
 71
     3
 72
    12
 73
     8
 74
     0
 42
0.0000001
 43
0.0000001
 40
0.3004138362153372
 40
0.3004138362153372
 40
0.3004138362153372
 40
0.3004138362153372
 40
0.6531836346659445
 40
2.201425060069765
 40
3.775834883110177
 40
5.170639203720888
 40
5.549375987942882
 40
5.549375987942882
 40
5.549375987942882
 40
5.549375987942882
 10
142.0735002027513
 20
546.5571220457436
 30
0.0
 10
142.0635859139665
 20
546.6152425106716
 30
0.0
 10
142.0163752668695
 20
546.9276352444962
 30
0.0
 10
142.0632072367507
 20
547.4814488339257
 30
0.0
 10
141.9212769342057
 20
548.3627740513143
 30
0.0
 10
141.2851406312174
 20
548.434272443515
 30
0.0
 10
140.9767176820378
 20
548.4320828407922
 30
0.0
 10
140.8552435715855
 20
548.4333369542223
 30
0.0
  0
SPLINE
  5
161D
100
AcDbEntity
  8
VHH-025
100
AcDbSpline
210
0.0
220
0.0
230
1.0
 70
     8
 71
     3
 72
    20
 73
    16
 74
     0
 42
0.0000001
 43
0.0000001
 40
3.141592653589793
 40
3.141592653589793
 40
3.141592653589793
 40
3.141592653589793
 40
3.566852563487359
 40
3.566852563487359
 40
4.097334864786621
 40
4.097334864786621
 40
4.627817166085884
 40
4.627817166085884
 40
5.158299467385146
 40
5.158299467385146
 40
5.688781768684408
 40
5.688781768684408
 40
6.21926406998367
 40
6.21926406998367
 40
6.283185307179586
 40
6.283185307179586
 40
6.283185307179586
 40
6.283185307179586
 10
143.7917384281254
 20
574.7015412051109
 30
0.0
 10
143.7917384281254
 20
574.6079094179317
 30
0.0
 10
143.8148001891122
 20
574.5140398747339
 30
0.0
 10
143.9188946685217
 20
574.3155401953486
 30
0.0
 10
144.0139848121098
 20
574.2142549173427
 30
0.0
 10
144.2605067054564
 20
574.0638440317265
 30
0.0
 10
144.4114058337081
 20
574.015666358368
 30
0.0
 10
144.7227439904645
 20
573.992872068657
 30
0.0
 10
144.8822965658864
 20
574.0183587110891
 30
0.0
 10
145.1591968695838
 20
574.1326732638558
 30
0.0
 10
145.2757745374556
 20
574.2208567932834
 30
0.0
 10
145.4366256148068
 20
574.4263696046259
 30
0.0
 10
145.4815289713451
 20
574.5426684718818
 30
0.0
 10
145.4912176546176
 20
574.6733934097606
 30
0.0
 10
145.4917384281261
 20
574.6874673186753
 30
0.0
 10
145.4917384281261
 20
574.7015412051109
 30
0.0
  0
SPLINE
  5
161E
100
AcDbEntity
  8
VHH-025
100
AcDbSpline
210
0.0
220
0.0
230
-1.0
 70
     8
 71
     3
 72
    20
 73
    16
 74
     0
 42
0.0000001
 43
0.0000001
 40
3.141592653589793
 40
3.141592653589793
 40
3.141592653589793
 40
3.141592653589793
 40
3.566852563487359
 40
3.566852563487359
 40
4.097334864786621
 40
4.097334864786621
 40
4.627817166085884
 40
4.627817166085884
 40
5.158299467385146
 40
5.158299467385146
 40
5.688781768684408
 40
5.688781768684408
 40
6.21926406998367
 40
6.21926406998367
 40
6.283185307179586
 40
6.283185307179586
 40
6.283185307179586
 40
6.283185307179586
 10
145.4917384281261
 20
576.0015412051111
 30
0.0
 10
145.4917384281261
 20
576.0951729922903
 30
0.0
 10
145.4686766671375
 20
576.1890425354872
 30
0.0
 10
145.3645821877298
 20
576.3875422148726
 30
0.0
 10
145.2694920441399
 20
576.4888274928785
 30
0.0
 10
145.0229701507933
 20
576.6392383784945
 30
0.0
 10
144.8720710225434
 20
576.6874160518532
 30
0.0
 10
144.560732865787
 20
576.710210341564
 30
0.0
 10
144.4011802903633
 20
576.6847236991321
 30
0.0
 10
144.1242799866677
 20
576.5704091463653
 30
0.0
 10
144.0077023187941
 20
576.4822256169386
 30
0.0
 10
143.8468512414447
 20
576.2767128055952
 30
0.0
 10
143.8019478849064
 20
576.1604139383402
 30
0.0
 10
143.7922592016338
 20
576.0296890004615
 30
0.0
 10
143.7917384281254
 20
576.0156150915459
 30
0.0
 10
143.7917384281254
 20
576.0015412051111
 30
0.0
  0
SPLINE
  5
161F
100
AcDbEntity
  8
VHH-025
100
AcDbSpline
210
0.0
220
0.0
230
1.0
 70
    11
 71
     3
 72
    15
 73
    11
 74
     9
 42
0.0000001
 43
0.0000001
 44
0.0000000001
 40
0.0
 40
0.0
 40
0.0
 40
0.0
 40
0.5147647394070095
 40
2.457789820814682
 40
3.944434646996009
 40
5.59179142545904
 40
7.104516291262754
 40
9.337163693806559
 40
10.73578930127726
 40
12.20445453441431
 40
12.20445453441431
 40
12.20445453441431
 40
12.20445453441431
 10
133.9563271827837
 20
549.1701369677571
 30
0.0
 10
134.0206280742101
 20
549.3285136722404
 30
0.0
 10
134.3276383729324
 20
550.084697269007
 30
0.0
 10
135.5808662588013
 20
551.0489547029696
 30
0.0
 10
137.4189753920353
 20
550.3234165821624
 30
0.0
 10
137.7520242067615
 20
548.5934052727247
 30
0.0
 10
136.9907101932643
 20
546.8944137153982
 30
0.0
 10
134.901814013364
 20
546.1536387965357
 30
0.0
 10
133.6137639625026
 20
547.7022612138419
 30
0.0
 10
133.8402949437062
 20
548.6729414128035
 30
0.0
 10
133.9563271827837
 20
549.1701369677571
 30
0.0
 11
133.9563271827837
 21
549.1701369677571
 31
0.0
 11
134.1700170801459
 21
549.6384524220206
 31
0.0
 11
135.7746589182234
 21
550.7341125145999
 31
0.0
 11
137.1560198334727
 21
550.1846083189534
 31
0.0
 11
137.578886229302
 21
548.5924499201669
 31
0.0
 11
136.93049071125
 21
547.2257313054583
 31
0.0
 11
134.7738737925292
 21
546.6480480964478
 31
0.0
 11
133.8576585459786
 21
547.7047898869819
 31
0.0
 11
133.9563271827837
 21
549.1701369677571
 31
0.0
  0
LINE
  5
1620
100
AcDbEntity
  8
VHH-025
100
AcDbLine
 10
143.553801
 20
511.7
 30
0.0
 11
146.574721
 21
511.7
 31
0.0
  0
LINE
  5
1621
100
AcDbEntity
  8
VHH-025
100
AcDbLine
 10
140.531748
 20
511.7
 30
0.0
 11
143.553801
 21
511.7
 31
0.0
  0
LINE
  5
1622
100
AcDbEntity
  8
VHH-025
100
AcDbLine
 10
138.948725
 20
546.557122
 30
0.0
 11
139.820361
 21
550.755023
 31
0.0
  0
LINE
  5
1623
100
AcDbEntity
  8
VHH-025
100
AcDbLine
 10
139.338295
 20
548.433337
 30
0.0
 11
140.855244
 21
548.433337
 31
0.0
  0
LINE
  5
1624
100
AcDbEntity
  8
VHH-025
100
AcDbLine
 10
139.820361
 20
550.755023
 30
0.0
 11
141.29638
 21
550.755023
 31
0.0
  0
CIRCLE
  5
1625
100
AcDbEntity
  8
VHH-025
100
AcDbCircle
 10
145.43611
 20
550.261906
 30
0.0
 40
0.724411
  0
LINE
  5
1626
100
AcDbEntity
  8
VHH-025
100
AcDbLine
 10
143.791738
 20
576.001541
 30
0.0
 11
143.791738
 21
574.701541
 31
0.0
  0
LINE
  5
1627
100
AcDbEntity
  8
VHH-025
100
AcDbLine
 10
140.291738
 20
579.351541
 30
0.0
 11
140.291738
 21
576.151541
 31
0.0
  0
LINE
  5
1628
100
AcDbEntity
  8
VHH-025
100
AcDbLine
 10
143.741738
 20
579.351541
 30
0.0
 11
140.541738
 21
573.751541
 31
0.0
  0
LINE
  5
1629
100
AcDbEntity
  8
VHH-025
100
AcDbLine
 10
145.491738
 20
576.001541
 30
0.0
 11
145.491738
 21
574.701541
 31
0.0
  0
CIRCLE
  5
162A
100
AcDbEntity
  8
VHH-025
100
AcDbCircle
 10
144.488133
 20
544.007773
 30
0.0
 40
0.724411
  0
LINE
  5
162B
100
AcDbEntity
  8
VHH-025
100
AcDbLine
 10
139.174103
 20
540.17532
 30
0.0
 11
140.051461
 21
544.402934
 31
0.0
  0
LINE
  5
162C
100
AcDbEntity
  8
VHH-025
100
AcDbLine
 10
137.799142
 20
544.402934
 30
0.0
 11
142.314971
 21
544.402934
 31
0.0
  0
LINE
  5
162D
100
AcDbEntity
  8
VHH-025
100
AcDbLine
 10
130.544411
 20
550.771731
 30
0.0
 11
129.673652
 21
546.557122
 31
0.0
  0
LINE
  5
162E
100
AcDbEntity
  8
VHH-025
100
AcDbLine
 10
128.448902
 20
550.755023
 30
0.0
 11
127.581594
 21
546.557122
 31
0.0
  0
LINE
  5
162F
100
AcDbEntity
  8
VHH-025
100
AcDbLine
 10
129.673652
 20
546.557122
 30
0.0
 11
132.8202
 21
546.557122
 31
0.0
  0
ARC
  5
1630
100
AcDbEntity
  8
VHH-025
100
AcDbCircle
 10
128.891738
 20
571.551541
 30
0.0
 40
0.75
100
AcDbArc
 50
270.0
 51
0.0
  0
CIRCLE
  5
1631
100
AcDbEntity
  8
VHH-025
100
AcDbCircle
 10
127.724775
 20
573.154619
 30
0.0
 40
0.025
  0
LINE
  5
1632
100
AcDbEntity
  8
VHH-025
100
AcDbLine
 10
126.46362
 20
573.408215
 30
0.0
 11
126.991736
 21
576.048792
 31
0.0
  0
LINE
  5
1633
100
AcDbEntity
  8
VHH-025
100
AcDbLine
 10
128.322616
 20
544.402934
 30
0.0
 11
129.224729
 21
544.402934
 31
0.0
  0
LINE
  5
1634
100
AcDbEntity
  8
VHH-025
100
AcDbLine
 10
129.224729
 20
544.402934
 30
0.0
 11
129.544494
 21
540.205033
 31
0.0
  0
LINE
  5
1635
100
AcDbEntity
  8
VHH-025
100
AcDbLine
 10
131.907895
 20
544.402934
 30
0.0
 11
129.679121
 21
540.205033
 31
0.0
  0
LINE
  5
1636
100
AcDbEntity
  8
VHH-025
100
AcDbLine
 10
128.322616
 20
544.402934
 30
0.0
 11
127.439624
 21
540.205033
 31
0.0
  0
LINE
  5
1637
100
AcDbEntity
  8
VHH-025
100
AcDbLine
 10
132.817655
 20
544.402934
 30
0.0
 11
131.934663
 21
540.205033
 31
0.0
  0
LINE
  5
1638
100
AcDbEntity
  8
VHH-025
100
AcDbLine
 10
129.544494
 20
540.205033
 30
0.0
 11
129.679121
 21
540.205033
 31
0.0
  0
LINE
  5
1639
100
AcDbEntity
  8
VHH-025
100
AcDbLine
 10
131.907895
 20
544.402934
 30
0.0
 11
132.817655
 21
544.402934
 31
0.0
  0
LINE
  5
163A
100
AcDbEntity
  8
VHH-025
100
AcDbLine
 10
124.52179
 20
544.402934
 30
0.0
 11
124.82704
 21
544.402934
 31
0.0
  0
LINE
  5
163B
100
AcDbEntity
  8
VHH-025
100
AcDbLine
 10
124.82704
 20
544.402934
 30
0.0
 11
125.514904
 21
540.205033
 31
0.0
  0
LINE
  5
163C
100
AcDbEntity
  8
VHH-025
100
AcDbLine
 10
136.544201
 20
544.402934
 30
0.0
 11
137.232066
 21
540.205033
 31
0.0
  0
LINE
  5
163D
100
AcDbEntity
  8
VHH-025
100
AcDbLine
 10
136.238952
 20
544.402934
 30
0.0
 11
136.544201
 21
544.402934
 31
0.0
  0
LINE
  5
163E
100
AcDbEntity
  8
VHH-025
100
AcDbLine
 10
133.796553
 20
540.205033
 30
0.0
 11
136.238952
 21
544.402934
 31
0.0
  0
LINE
  5
163F
100
AcDbEntity
  8
VHH-025
100
AcDbLine
 10
134.262929
 20
541.006622
 30
0.0
 11
137.100718
 21
541.006622
 31
0.0
  0
LINE
  5
1640
100
AcDbEntity
  8
VHH-025
100
AcDbLine
 10
134.486697
 20
511.7
 30
0.0
 11
140.531748
 21
511.7
 31
0.0
  0
LINE
  5
1641
100
AcDbEntity
  8
VHH-025
100
AcDbLine
 10
127.182396
 20
577.002091
 30
0.0
 11
127.711034
 21
579.645282
 31
0.0
  0
LINE
  5
1642
100
AcDbEntity
  8
VHH-025
100
AcDbLine
 10
124.436045
 20
579.701023
 30
0.0
 11
123.90793
 21
577.060446
 31
0.0
  0
ARC
  5
1643
100
AcDbEntity
  8
VHH-025
100
AcDbCircle
 10
101.141738
 20
579.551541
 30
0.0
 40
0.25
100
AcDbArc
 50
90.0
 51
180.0
  0
ARC
  5
1644
100
AcDbEntity
  8
VHH-025
100
AcDbCircle
 10
103.641738
 20
579.551541
 30
0.0
 40
0.25
100
AcDbArc
 50
0.0
 51
90.0
  0
LINE
  5
1645
100
AcDbEntity
  8
VHH-025
100
AcDbLine
 10
118.236045
 20
579.701023
 30
0.0
 11
117.70793
 21
577.060446
 31
0.0
  0
CIRCLE
  5
1646
100
AcDbEntity
  8
VHH-025
100
AcDbCircle
 10
64.581312
 20
577.554525
 30
0.0
 40
2.21318
  0
LINE
  5
1647
100
AcDbEntity
  8
VHH-025
100
AcDbLine
 10
194.494425
 20
511.7
 30
0.0
 11
218.078378
 21
511.7
 31
0.0
  0
LINE
  5
1648
100
AcDbEntity
  8
VHH-025
100
AcDbLine
 10
213.492826
 20
508.1
 30
0.0
 11
204.492826
 21
508.1
 31
0.0
  0
LINE
  5
1649
100
AcDbEntity
  8
VHH-025
100
AcDbLine
 10
213.244298
 20
508.7
 30
0.0
 11
204.492826
 21
508.7
 31
0.0
  0
LINE
  5
164A
100
AcDbEntity
  8
VHH-025
100
AcDbLine
 10
204.492826
 20
509.7
 30
0.0
 11
214.244298
 21
509.7
 31
0.0
  0
LWPOLYLINE
  5
164B
100
AcDbEntity
  8
VHH-025
100
AcDbPolyline
 90
        6
 70
     0
 43
0.0
 10
202.381403
 20
510.3
 10
202.379855
 20
510.299999
 10
202.010355
 20
510.228614
 10
201.685587
 20
510.01822
 10
201.46501
 20
509.70028
 10
201.381654
 20
509.322402
  0
LINE
  5
164C
100
AcDbEntity
  8
VHH-025
100
AcDbLine
 10
191.522459
 20
511.7
 30
0.0
 11
194.494425
 21
511.7
 31
0.0
  0
LINE
  5
164D
100
AcDbEntity
  8
VHH-025
100
AcDbLine
 10
182.587946
 20
511.7
 30
0.0
 11
188.547355
 21
511.7
 31
0.0
  0
LINE
  5
164E
100
AcDbEntity
  8
VHH-025
100
AcDbLine
 10
170.632422
 20
511.7
 30
0.0
 11
182.587946
 21
511.7
 31
0.0
  0
LINE
  5
164F
100
AcDbEntity
  8
VHH-025
100
AcDbLine
 10
188.547355
 20
511.7
 30
0.0
 11
191.522459
 21
511.7
 31
0.0
  0
LINE
  5
1650
100
AcDbEntity
  8
VHH-025
100
AcDbLine
 10
204.492826
 20
508.7
 30
0.0
 11
204.492826
 21
509.7
 31
0.0
  0
LINE
  5
1651
100
AcDbEntity
  8
VHH-025
100
AcDbLine
 10
204.492826
 20
508.1
 30
0.0
 11
204.492826
 21
508.7
 31
0.0
  0
LINE
  5
1652
100
AcDbEntity
  8
VHH-025
100
AcDbLine
 10
209.528368
 20
510.3
 30
0.0
 11
209.528368
 21
510.9
 31
0.0
  0
SPLINE
  5
1653
100
AcDbEntity
  8
VHH-025
100
AcDbSpline
210
0.0
220
0.0
230
1.0
 70
     8
 71
     3
 72
    11
 73
     7
 74
     5
 42
0.0000001
 43
0.0000001
 44
0.0000000001
 40
0.0
 40
0.0
 40
0.0
 40
0.0
 40
0.6501585836432341
 40
1.328696847749174
 40
2.007498148688284
 40
2.665365116566113
 40
2.665365116566113
 40
2.665365116566113
 40
2.665365116566113
 10
232.5091856765093
 20
513.2798863506819
 30
0.0
 10
232.4706963135737
 20
513.0617176408105
 30
0.0
 10
232.3920375117198
 20
512.6158570702106
 30
0.0
 10
231.9016331953632
 20
512.1199186768701
 30
0.0
 10
231.3138895135717
 20
511.7706116462875
 30
0.0
 10
230.8655393479782
 20
511.7232902761222
 30
0.0
 10
230.6448752005099
 20
511.7000001546816
 30
0.0
 11
232.5091856765093
 21
513.2798863506819
 31
0.0
 11
232.3348349730668
 21
512.6535413849528
 31
0.0
 11
231.88563006407
 21
512.1449854631614
 31
0.0
 11
231.2926959221722
 21
511.8145307619865
 31
0.0
 11
230.6448752005099
 21
511.7000001546816
 31
0.0
  0
SPLINE
  5
1654
100
AcDbEntity
  8
VHH-025
100
AcDbSpline
210
0.0
220
0.0
230
-1.0
 70
     8
 71
     3
 72
    13
 73
     9
 74
     7
 42
0.0000001
 43
0.0000001
 44
0.0000000001
 40
0.0
 40
0.0
 40
0.0
 40
0.0
 40
5.157331242127678
 40
11.03348381863841
 40
14.6191666271849
 40
16.78242660352459
 40
17.89174384221329
 40
18.52503597702181
 40
18.52503597702181
 40
18.52503597702181
 40
18.52503597702181
 10
226.9346359143901
 20
523.0000001114835
 30
0.0
 10
226.8456201336944
 20
524.7169780778855
 30
0.0
 10
226.6551816821388
 20
528.3902439046967
 30
0.0
 10
226.5263977526028
 20
533.2602549082184
 30
0.0
 10
226.505274965271
 20
537.1399900125468
 30
0.0
 10
226.7507902485861
 20
539.4167616269997
 30
0.0
 10
227.0288872191917
 20
540.6932364663021
 30
0.0
 10
227.2327041108624
 20
541.2376587941419
 30
0.0
 10
227.3067744311529
 20
541.4355105809386
 30
0.0
 11
226.9346359143901
 21
523.0000001114835
 31
0.0
 11
226.6879606321426
 21
528.1514287333471
 31
0.0
 11
226.5317373253956
 21
534.0255042674939
 31
0.0
 11
226.5868148954932
 21
537.6107640439645
 31
0.0
 11
226.8391426389416
 21
539.7592575708618
 31
0.0
 11
227.0950952917346
 21
540.8386430328632
 31
0.0
 11
227.3067744311529
 21
541.4355105809386
 31
0.0
  0
SPLINE
  5
1655
100
AcDbEntity
  8
VHH-025
100
AcDbSpline
210
0.0
220
0.0
230
1.0
 70
     8
 71
     3
 72
    12
 73
     8
 74
     6
 42
0.0000001
 43
0.0000001
 44
0.0000000001
 40
0.0
 40
0.0
 40
0.0
 40
0.0
 40
0.5662025144877934
 40
1.132136061659873
 40
1.697787119143066
 40
2.263116602110201
 40
2.828292171029371
 40
2.828292171029371
 40
2.828292171029371
 40
2.828292171029371
 10
226.5436453147167
 20
513.4078597155207
 30
0.0
 10
226.5051110784422
 20
513.220990630652
 30
0.0
 10
226.4280609110927
 20
512.8473412307006
 30
0.0
 10
226.0891523820731
 20
512.3795073738374
 30
0.0
 10
225.6739241194716
 20
511.9881665273047
 30
0.0
 10
225.1414736726923
 20
511.7617161549864
 30
0.0
 10
224.7659100007663
 20
511.7205702874978
 30
0.0
 10
224.5781537306001
 20
511.7000001546816
 30
0.0
 11
226.5436453147167
 21
513.4078597155207
 31
0.0
 11
226.3907888255098
 21
512.8626806796805
 31
0.0
 11
226.0763371460098
 21
512.3921480866815
 31
0.0
 11
225.6542627265107
 21
512.0155656876818
 31
0.0
 11
225.1362539210103
 21
511.7891494741811
 31
0.0
 11
224.5781537306001
 21
511.7000001546816
 31
0.0
  0
SPLINE
  5
1656
100
AcDbEntity
  8
VHH-025
100
AcDbSpline
210
0.0
220
0.0
230
1.0
 70
     8
 71
     3
 72
    17
 73
    13
 74
    11
 42
0.0000001
 43
0.0000001
 44
0.0000000001
 40
0.0
 40
0.0
 40
0.0
 40
0.0
 40
0.5545798661044809
 40
1.653562178451522
 40
2.750923934510645
 40
3.84857121251147
 40
4.674193321130468
 40
5.488636099266186
 40
8.52417256482677
 40
12.84394436806059
 40
16.51294489443635
 40
20.18194542081096
 40
20.18194542081096
 40
20.18194542081096
 40
20.18194542081096
 10
227.5790734631073
 20
541.8853574984491
 30
0.0
 10
227.6069832685419
 20
541.7026698175605
 30
0.0
 10
227.6902004956634
 20
541.1579593835011
 30
0.0
 10
227.9245318290764
 20
540.2646237353074
 30
0.0
 10
228.45586692887
 20
539.2910481188892
 30
0.0
 10
229.1248804193574
 20
538.5299702545462
 30
0.0
 10
229.8423856226973
 20
537.9564970038736
 30
0.0
 10
230.7156114130592
 20
536.6443091403921
 30
0.0
 10
231.5300657738523
 20
534.0215989233557
 30
0.0
 10
232.5824187669009
 20
530.4990277768228
 30
0.0
 10
233.012170970309
 20
526.6252619162182
 30
0.0
 10
233.3814126717255
 20
524.2084207388914
 30
0.0
 10
233.5660335224338
 20
523.000000150228
 30
0.0
 11
227.5790734631073
 21
541.8853574984491
 31
0.0
 11
227.6692861542987
 21
541.338164206973
 31
0.0
 11
227.9665288620717
 21
540.2801429900177
 31
0.0
 11
228.4888345577028
 21
539.3150525362402
 31
0.0
 11
229.2105631693857
 21
538.4880474830629
 31
0.0
 11
229.814010735904
 21
537.9245735256313
 31
0.0
 11
230.2857934576359
 21
537.2606924351243
 31
0.0
 11
231.3967343353569
 21
534.4357513738
 31
0.0
 11
232.507675213078
 21
530.2612767004761
 31
0.0
 11
233.0368543677568
 21
526.6306384253517
 31
0.0
 11
233.5660335224338
 21
523.000000150228
 31
0.0
  0
LINE
  5
1657
100
AcDbEntity
  8
VHH-025
100
AcDbLine
 10
233.587285
 20
522.0
 30
0.0
 11
232.509186
 21
513.279886
 31
0.0
  0
LINE
  5
1658
100
AcDbEntity
  8
VHH-025
100
AcDbLine
 10
231.448772
 20
523.0
 30
0.0
 11
231.589547
 21
522.0
 31
0.0
  0
LINE
  5
1659
100
AcDbEntity
  8
VHH-025
100
AcDbLine
 10
219.870739
 20
511.7
 30
0.0
 11
220.077426
 21
511.7
 31
0.0
  0
LINE
  5
165A
100
AcDbEntity
  8
VHH-025
100
AcDbLine
 10
219.74396
 20
511.7
 30
0.0
 11
219.870739
 21
511.7
 31
0.0
  0
LINE
  5
165B
100
AcDbEntity
  8
VHH-025
100
AcDbLine
 10
219.674763
 20
511.7
 30
0.0
 11
219.74396
 21
511.7
 31
0.0
  0
LINE
  5
165C
100
AcDbEntity
  8
VHH-025
100
AcDbLine
 10
219.602404
 20
511.7
 30
0.0
 11
219.674763
 21
511.7
 31
0.0
  0
LINE
  5
165D
100
AcDbEntity
  8
VHH-025
100
AcDbLine
 10
219.282595
 20
511.7
 30
0.0
 11
219.602404
 21
511.7
 31
0.0
  0
LINE
  5
165E
100
AcDbEntity
  8
VHH-025
100
AcDbLine
 10
219.104564
 20
511.7
 30
0.0
 11
219.282595
 21
511.7
 31
0.0
  0
LINE
  5
165F
100
AcDbEntity
  8
VHH-025
100
AcDbLine
 10
218.914637
 20
511.7
 30
0.0
 11
219.104564
 21
511.7
 31
0.0
  0
LINE
  5
1660
100
AcDbEntity
  8
VHH-025
100
AcDbLine
 10
218.510993
 20
511.7
 30
0.0
 11
218.914637
 21
511.7
 31
0.0
  0
LINE
  5
1661
100
AcDbEntity
  8
VHH-025
100
AcDbLine
 10
218.078378
 20
511.7
 30
0.0
 11
218.510993
 21
511.7
 31
0.0
  0
ARC
  5
1662
100
AcDbEntity
  8
VHH-025
100
AcDbCircle
 10
217.892826
 20
510.7
 30
0.0
 40
1.6
100
AcDbArc
 50
270.0
 51
38.682187
  0
LINE
  5
1663
100
AcDbEntity
  8
VHH-025
100
AcDbLine
 10
214.244298
 20
509.7
 30
0.0
 11
213.244298
 21
508.7
 31
0.0
  0
LINE
  5
1664
100
AcDbEntity
  8
VHH-025
100
AcDbLine
 10
214.492826
 20
509.1
 30
0.0
 11
213.492826
 21
508.1
 31
0.0
  0
LINE
  5
1665
100
AcDbEntity
  8
VHH-025
100
AcDbLine
 10
217.892826
 20
509.1
 30
0.0
 11
214.492826
 21
509.1
 31
0.0
  0
ARC
  5
1666
100
AcDbEntity
  8
VHH-025
100
AcDbCircle
 10
217.892826
 20
510.7
 30
0.0
 40
1.0
100
AcDbArc
 50
270.0
 51
90.0
  0
LINE
  5
1667
100
AcDbEntity
  8
VHH-025
100
AcDbLine
 10
214.244298
 20
509.7
 30
0.0
 11
217.892826
 21
509.7
 31
0.0
  0
LINE
  5
1668
100
AcDbEntity
  8
VHH-025
100
AcDbLine
 10
226.956014
 20
522.0
 30
0.0
 11
226.543645
 21
513.40786
 31
0.0
  0
SPLINE
  5
1669
100
AcDbEntity
  8
VHH-025
100
AcDbSpline
210
0.0
220
0.0
230
-1.0
 70
     8
 71
     3
 72
    14
 73
    10
 74
     0
 42
0.0000001
 43
0.0000001
 40
0.0
 40
0.0
 40
0.0
 40
0.0
 40
8.543455177382728
 40
32.60806185346405
 40
34.09251365044104
 40
35.82256549595564
 40
37.21403762249804
 40
38.48665207093368
 40
38.6143838058074
 40
38.6143838058074
 40
38.6143838058074
 40
38.6143838058074
 10
122.3961048401642
 20
608.3729801514031
 30
0.0
 10
125.2453913181534
 20
608.360981117235
 30
0.0
 10
136.1203485554115
 20
608.3151840433097
 30
0.0
 10
147.8900770336958
 20
608.2312267889297
 30
0.0
 10
156.5784690613172
 20
607.9590829833191
 30
0.0
 10
158.0299831450638
 20
607.2382751519167
 30
0.0
 10
158.8603885716793
 20
605.936033184515
 30
0.0
 10
158.8844798196487
 20
604.9915641575558
 30
0.0
 10
158.894154275983
 20
604.5193440493371
 30
0.0
 10
158.8950169921636
 20
604.476283153705
 30
0.0
  0
ARC
  5
166A
100
AcDbEntity
  8
VHH-025
100
AcDbCircle
 10
126.687421
 20
-119.149534
 30
0.0
 40
730.516587
100
AcDbArc
 50
87.19827
 51
90.336663
  0
SPLINE
  5
166B
100
AcDbEntity
  8
VHH-025
100
AcDbSpline
210
0.0
220
0.0
230
-1.0
 70
     8
 71
     3
 72
    14
 73
    10
 74
     0
 42
0.0000001
 43
0.0000001
 40
0.0
 40
0.0
 40
0.0
 40
0.0
 40
8.543455177382728
 40
32.60806185346405
 40
34.09251365044104
 40
35.82256549595564
 40
37.21403762249804
 40
38.48665207093368
 40
38.6143838058074
 40
38.6143838058074
 40
38.6143838058074
 40
38.6143838058074
 10
122.3917384281257
 20
608.3729801514031
 30
0.0
 10
119.5424519501366
 20
608.360981117235
 30
0.0
 10
108.6674947128767
 20
608.3151840433097
 30
0.0
 10
96.89776623459421
 20
608.2312267889297
 30
0.0
 10
88.209374206971
 20
607.9590829833191
 30
0.0
 10
86.75786012322442
 20
607.2382751519167
 30
0.0
 10
85.92745469660895
 20
605.936033184515
 30
0.0
 10
85.90336344863954
 20
604.9915641575558
 30
0.0
 10
85.89368899230704
 20
604.5193440493371
 30
0.0
 10
85.89282627612465
 20
604.476283153705
 30
0.0
  0
ARC
  5
166C
100
AcDbEntity
  8
VHH-025
100
AcDbCircle
 10
118.100423
 20
-119.149534
 30
0.0
 40
730.516587
100
AcDbArc
 50
89.663337
 51
92.80173
  0
LINE
  5
166D
100
AcDbEntity
  8
VHH-025
100
AcDbLine
 10
115.891738
 20
582.301541
 30
0.0
 11
128.891738
 21
582.301541
 31
0.0
  0
ARC
  5
166E
100
AcDbEntity
  8
VHH-025
100
AcDbCircle
 10
115.891738
 20
581.551541
 30
0.0
 40
0.75
100
AcDbArc
 50
90.0
 51
180.0
  0
SPLINE
  5
166F
100
AcDbEntity
  8
VHH-025
100
AcDbSpline
210
0.0
220
0.0
230
-1.0
 70
     8
 71
     3
 72
    20
 73
    16
 74
     0
 42
0.0000001
 43
0.0000001
 40
0.0
 40
0.0
 40
0.0
 40
0.0
 40
0.411372432094715
 40
0.411372432094715
 40
0.7549641539760199
 40
0.7549641539760199
 40
1.460265566936419
 40
1.460265566936419
 40
1.780008105651267
 40
1.780008105651267
 40
2.128014443002301
 40
2.128014443002301
 40
2.476020780353334
 40
2.476020780353334
 40
2.570156969732271
 40
2.570156969732271
 40
2.570156969732271
 40
2.570156969732271
 10
66.57683508659738
 20
588.0800127985562
 30
0.0
 10
66.71555628765509
 20
588.069787384667
 30
0.0
 10
66.83775553094801
 20
588.060143726047
 30
0.0
 10
67.02543350019642
 20
588.0325845736502
 30
0.0
 10
67.09647289670193
 20
588.0165616940007
 30
0.0
 10
67.27314304547235
 20
587.9578439158917
 30
0.0
 10
67.37025891788016
 20
587.8945793828238
 30
0.0
 10
67.47691226585175
 20
587.775591834395
 30
0.0
 10
67.50551295684181
 20
587.7339537645507
 30
0.0
 10
67.54940313743373
 20
587.6489294260559
 30
0.0
 10
67.56190665457416
 20
587.6138866018768
 30
0.0
 10
67.58652244617133
 20
587.4890743606989
 30
0.0
 10
67.59522612916135
 20
587.4031906175973
 30
0.0
 10
67.60359851644262
 20
587.2677466571953
 30
0.0
 10
67.60528990627881
 20
587.2374127361113
 30
0.0
 10
67.60705672056338
 20
587.2056418385049
 30
0.0
  0
SPLINE
  5
1670
100
AcDbEntity
  8
VHH-025
100
AcDbSpline
210
0.0
220
0.0
230
-1.0
 70
     8
 71
     3
 72
    11
 73
     7
 74
     5
 42
0.0000001
 43
0.0000001
 44
0.0000000001
 40
0.0
 40
0.0
 40
0.0
 40
0.0
 40
0.8012084873059352
 40
1.355387018409139
 40
1.955784421317266
 40
2.570156969731423
 40
2.570156969731423
 40
2.570156969731423
 40
2.570156969731423
 10
66.62829385994064
 20
588.7781188038639
 30
0.0
 10
66.89847385982695
 20
588.7582033021059
 30
0.0
 10
67.35553150497374
 20
588.7245126797829
 30
0.0
 10
67.9314965233221
 20
588.3786628649501
 30
0.0
 10
68.27164618261995
 20
587.861843852962
 30
0.0
 10
68.29444584040517
 20
587.4518598500717
 30
0.0
 10
68.30597681698328
 20
587.2445095477446
 30
0.0
 11
66.62829385994064
 21
588.7781188038639
 31
0.0
 11
67.4185997358536
 21
588.6463930940403
 31
0.0
 11
67.89069943941012
 21
588.3561591982984
 31
0.0
 11
68.21746755976801
 21
587.8524731483262
 31
0.0
 11
68.30597681698328
 21
587.2445095477446
 31
0.0
  0
LINE
  5
1671
100
AcDbEntity
  8
VHH-025
100
AcDbLine
 10
61.685993
 20
587.846433
 30
0.0
 11
66.660965
 21
588.078882
 31
0.0
  0
ARC
  5
1672
100
AcDbEntity
  8
VHH-025
100
AcDbCircle
 10
128.891738
 20
581.551541
 30
0.0
 40
0.75
100
AcDbArc
 50
0.0
 51
90.0
  0
LINE
  5
1673
100
AcDbEntity
  8
VHH-025
100
AcDbLine
 10
148.891738
 20
599.494917
 30
0.0
 11
153.891738
 21
599.494917
 31
0.0
  0
CIRCLE
  5
1674
100
AcDbEntity
  8
VHH-025
100
AcDbCircle
 10
151.391738
 20
590.051541
 30
0.0
 40
2.0
  0
SPLINE
  5
1675
100
AcDbEntity
  8
VHH-025
100
AcDbSpline
210
0.0
220
0.0
230
-1.0
 70
     8
 71
     3
 72
    15
 73
    11
 74
     9
 42
0.0000001
 43
0.0000001
 44
0.0000000001
 40
0.0
 40
0.0
 40
0.0
 40
0.0
 40
8.727930916723018
 40
16.25763323255694
 40
20.36216076943198
 40
21.62307303412697
 40
23.69549543386472
 40
25.38624445710541
 40
45.72281463408984
 40
79.43205808847128
 40
79.43205808847128
 40
79.43205808847128
 40
79.43205808847128
 10
227.5319426058222
 20
585.5000001546819
 30
0.0
 10
226.8331640487599
 20
588.3165902787381
 30
0.0
 10
225.531539918151
 20
593.5630902384954
 30
0.0
 10
223.6014529611499
 20
600.1571665177066
 30
0.0
 10
221.2950342831652
 20
603.7812058379033
 30
0.0
 10
219.7567804642338
 20
605.7824605104721
 30
0.0
 10
218.0670328909896
 20
606.3205618189407
 30
0.0
 10
210.1310101719514
 20
607.1052661239075
 30
0.0
 10
191.5700876823101
 20
609.0216375837567
 30
0.0
 10
173.6020013686533
 20
610.0672750766823
 30
0.0
 10
162.3950168631063
 20
610.7194560033026
 30
0.0
 11
227.5319426058222
 21
585.5000001546819
 31
0.0
 11
225.3666087170413
 21
593.9550641542732
 31
0.0
 11
222.867086621859
 21
601.0577964637982
 31
0.0
 11
220.6986513817328
 21
604.5427691911441
 31
0.0
 11
219.8628371091645
 21
605.4868635937487
 31
0.0
 11
217.9466887476746
 21
606.2763634732259
 31
0.0
 11
216.2705801097899
 21
606.4983817013012
 31
0.0
 11
196.0275621081246
 21
608.446793553981
 31
0.0
 11
162.3950168631063
 21
610.7194560033026
 31
0.0
  0
LINE
  5
1676
100
AcDbEntity
  8
VHH-025
100
AcDbLine
 10
151.391738
 20
595.16479
 30
0.0
 11
153.891738
 21
599.494917
 31
0.0
  0
LINE
  5
1677
100
AcDbEntity
  8
VHH-025
100
AcDbLine
 10
148.891738
 20
599.494917
 30
0.0
 11
151.391738
 21
595.16479
 31
0.0
  0
LINE
  5
1678
100
AcDbEntity
  8
VHH-025
100
AcDbLine
 10
272.636426
 20
553.141991
 30
0.0
 11
272.603369
 21
586.038518
 31
0.0
  0
LINE
  5
1679
100
AcDbEntity
  8
VHH-025
100
AcDbLine
 10
273.964391
 20
557.454525
 30
0.0
 11
275.019995
 21
583.920205
 31
0.0
  0
LINE
  5
167A
100
AcDbEntity
  8
VHH-025
100
AcDbLine
 10
274.530323
 20
571.643345
 30
0.0
 11
274.573197
 21
585.247496
 31
0.0
  0
LINE
  5
167B
100
AcDbEntity
  8
VHH-025
100
AcDbLine
 10
289.74064
 20
585.941054
 30
0.0
 11
289.601686
 21
554.630639
 31
0.0
  0
LINE
  5
167C
100
AcDbEntity
  8
VHH-025
100
AcDbLine
 10
288.978918
 20
584.813646
 30
0.0
 11
287.925069
 21
558.017127
 31
0.0
  0
LINE
  5
167D
100
AcDbEntity
  8
VHH-025
100
AcDbLine
 10
291.685992
 20
587.846433
 30
0.0
 11
291.663729
 21
553.200051
 31
0.0
  0
LINE
  5
167E
100
AcDbEntity
  8
VHH-025
100
AcDbLine
 10
298.305976
 20
587.24451
 30
0.0
 11
298.281929
 21
554.456147
 31
0.0
  0
LINE
  5
167F
100
AcDbEntity
  8
VHH-025
100
AcDbLine
 10
297.607056
 20
587.205642
 30
0.0
 11
297.58606
 21
554.53208
 31
0.0
  0
LWPOLYLINE
  5
1680
100
AcDbEntity
  8
VHH-025
100
AcDbPolyline
 90
        3
 70
     0
 43
0.0
 10
247.2559
 20
585.5
 10
249.492341
 20
585.5
 10
247.208769
 20
541.885357
  0
LINE
  5
1681
100
AcDbEntity
  8
VHH-025
100
AcDbLine
 10
315.892825
 20
604.476283
 30
0.0
 11
315.892825
 21
558.396587
 31
0.0
  0
LINE
  5
1682
100
AcDbEntity
  8
VHH-025
100
AcDbLine
 10
312.392825
 20
610.719456
 30
0.0
 11
312.392825
 21
543.217767
 31
0.0
  0
LINE
  5
1683
100
AcDbEntity
  8
VHH-025
100
AcDbLine
 10
254.377867
 20
604.207869
 30
0.0
 11
252.098346
 21
523.0
 31
0.0
  0
SPLINE
  5
1684
100
AcDbEntity
  8
VHH-025
100
AcDbSpline
210
0.0
220
0.0
230
1.0
 70
    11
 71
     3
 72
    42
 73
    38
 74
     0
 42
0.0000001
 43
0.0000001
 40
0.0
 40
0.0
 40
0.0
 40
0.0
 40
0.2020226795177207
 40
0.2020226795177207
 40
0.6060680385531623
 40
0.6060680385531623
 40
1.010113397588603
 40
1.010113397588603
 40
1.414158756624045
 40
1.414158756624045
 40
1.774897046242743
 40
1.774897046242743
 40
2.130089007394168
 40
2.130089007394168
 40
2.471304605574108
 40
2.471304605574108
 40
2.812520203754048
 40
2.812520203754048
 40
3.071352036479815
 40
3.071352036479815
 40
3.330183869205582
 40
3.330183869205582
 40
3.713842095799154
 40
3.713842095799154
 40
4.097500322392726
 40
4.097500322392726
 40
4.481158548986298
 40
4.481158548986298
 40
4.86481677557987
 40
4.86481677557987
 40
5.248475002173442
 40
5.248475002173442
 40
5.632133228767014
 40
5.632133228767014
 40
6.015791455360586
 40
6.015791455360586
 40
6.283185307179586
 40
6.283185307179586
 40
6.283185307179586
 40
6.283185307179586
 10
364.6417372985151
 20
576.5515412051113
 30
0.0
 10
364.6417372985151
 20
576.1265904103534
 30
0.0
 10
364.6957473842421
 20
575.7013417411021
 30
0.0
 10
365.0148404388755
 20
574.4540960623348
 30
0.0
 10
365.4403455614165
 20
573.6609261076169
 30
0.0
 10
366.6369303582641
 20
572.279003883465
 30
0.0
 10
367.409343567614
 20
571.6898772556747
 30
0.0
 10
369.1732543184162
 20
570.8036900307938
 30
0.0
 10
370.1659458622334
 20
570.5063473105123
 30
0.0
 10
372.1050535444273
 20
570.2614637977717
 30
0.0
 10
373.0457168029597
 20
570.2794103879946
 30
0.0
 10
374.8458676744494
 20
570.5772000669972
 30
0.0
 10
375.7068170702195
 20
570.8538852357492
 30
0.0
 10
377.2288653079204
 20
571.6154870706045
 30
0.0
 10
377.8958705873983
 20
572.0932424144134
 30
0.0
 10
378.997263175569
 20
573.2038874728227
 30
0.0
 10
379.429722456759
 20
573.8380687967951
 30
0.0
 10
379.938157220834
 20
575.0281355356787
 30
0.0
 10
380.0744919518301
 20
575.5651042954254
 30
0.0
 10
380.1691542153866
 20
576.6515718385575
 30
0.0
 10
380.1289633383648
 20
577.2005818626198
 30
0.0
 10
379.8134480139897
 20
578.5259645525416
 30
0.0
 10
379.4319852940361
 20
579.2857013669658
 30
0.0
 10
378.3510075683871
 20
580.6293372304757
 30
0.0
 10
377.6496125266648
 20
581.2131430493914
 30
0.0
 10
376.0326434648441
 20
582.1273077638193
 30
0.0
 10
375.1157818866913
 20
582.4565872070265
 30
0.0
 10
373.1977006204479
 20
582.8183942672353
 30
0.0
 10
372.1959430978686
 20
582.8493936915688
 30
0.0
 10
370.2488350922403
 20
582.6106613931465
 30
0.0
 10
369.3037233650911
 20
582.3392525337899
 30
0.0
 10
367.6034179841508
 20
581.5317625395232
 30
0.0
 10
366.8491279492909
 20
580.9939434962229
 30
0.0
 10
365.6405732937392
 20
579.7259033370123
 30
0.0
 10
365.1881588358637
 20
578.9936092189332
 30
0.0
 10
364.7362725019056
 20
577.6767025127696
 30
0.0
 10
364.6417372985151
 20
577.1139989950738
 30
0.0
 10
364.6417372985151
 20
576.5515412051113
 30
0.0
  0
LINE
  5
1685
100
AcDbEntity
  8
VHH-025
100
AcDbLine
 10
359.641737
 20
571.551541
 30
0.0
 11
359.641737
 21
581.551541
 31
0.0
  0
LINE
  5
1686
100
AcDbEntity
  8
VHH-025
100
AcDbLine
 10
345.141737
 20
571.551541
 30
0.0
 11
345.141737
 21
581.551541
 31
0.0
  0
SPLINE
  5
1687
100
AcDbEntity
  8
VHH-025
100
AcDbSpline
210
0.0
220
0.0
230
1.0
 70
    11
 71
     3
 72
    42
 73
    38
 74
     0
 42
0.0000001
 43
0.0000001
 40
0.0
 40
0.0
 40
0.0
 40
0.0
 40
0.2020226795172709
 40
0.2020226795172709
 40
0.6060680385518129
 40
0.6060680385518129
 40
1.010113397586354
 40
1.010113397586354
 40
1.414158756620896
 40
1.414158756620896
 40
1.774897046269892
 40
1.774897046269892
 40
2.130089007588556
 40
2.130089007588556
 40
2.471304605639319
 40
2.471304605639319
 40
2.812520203690082
 40
2.812520203690082
 40
3.071352036382359
 40
3.071352036382359
 40
3.330183869074637
 40
3.330183869074637
 40
3.713842095834065
 40
3.713842095834065
 40
4.097500322593494
 40
4.097500322593494
 40
4.481158549352922
 40
4.481158549352922
 40
4.864816776112351
 40
4.864816776112351
 40
5.24847500287178
 40
5.24847500287178
 40
5.632133229631208
 40
5.632133229631208
 40
6.015791456390637
 40
6.015791456390637
 40
6.283185307179586
 40
6.283185307179586
 40
6.283185307179586
 40
6.283185307179586
 10
324.6417372985151
 20
576.5515412051113
 30
0.0
 10
324.6417372985151
 20
576.1265904103543
 30
0.0
 10
324.6957473842421
 20
575.7013417411049
 30
0.0
 10
325.0148404388737
 20
574.4540960623403
 30
0.0
 10
325.4403455614128
 20
573.6609261076232
 30
0.0
 10
326.636930358255
 20
572.2790038834723
 30
0.0
 10
327.4093435676031
 20
571.6898772556819
 30
0.0
 10
329.173254318398
 20
570.8036900308002
 30
0.0
 10
330.1659458622134
 20
570.5063473105179
 30
0.0
 10
332.1050535444801
 20
570.2614637977626
 30
0.0
 10
333.0457168030943
 20
570.2794103879955
 30
0.0
 10
334.8458676750697
 20
570.5772000671199
 30
0.0
 10
335.7068170712218
 20
570.853885236082
 30
0.0
 10
337.2288653088226
 20
571.6154870712175
 30
0.0
 10
337.8958705879658
 20
572.0932424149127
 30
0.0
 10
338.9972631756309
 20
573.20388747296
 30
0.0
 10
339.4297224566516
 20
573.838068796685
 30
0.0
 10
339.9381572206848
 20
575.0281355352194
 30
0.0
 10
340.0744919517173
 20
575.565104294887
 30
0.0
 10
340.1691542153921
 20
576.65157183787
 30
0.0
 10
340.1289633384521
 20
577.200581861864
 30
0.0
 10
339.8134480142316
 20
578.5259645520969
 30
0.0
 10
339.4319852941525
 20
579.2857013668749
 30
0.0
 10
338.351007567976
 20
580.6293372309341
 30
0.0
 10
337.6496125258572
 20
581.2131430500444
 30
0.0
 10
336.0326434631142
 20
582.1273077646024
 30
0.0
 10
335.1157818844376
 20
582.4565872077496
 30
0.0
 10
333.1977006172046
 20
582.8183942675491
 30
0.0
 10
332.1959430941578
 20
582.8493936915397
 30
0.0
 10
330.2488350878456
 20
582.6106613921815
 30
0.0
 10
329.3037233604709
 20
582.3392525322392
 30
0.0
 10
327.6034179794869
 20
581.5317625366646
 30
0.0
 10
326.8491279447944
 20
580.9939434926432
 30
0.0
 10
325.6405732900702
 20
579.7259033320237
 30
0.0
 10
325.1881588328369
 20
578.9936092132498
 30
0.0
 10
324.7362725011707
 20
577.6767025084422
 30
0.0
 10
324.6417372985133
 20
577.1139989929074
 30
0.0
 10
324.6417372985151
 20
576.5515412051113
 30
0.0
  0
LINE
  5
1688
100
AcDbEntity
  8
VHH-025
100
AcDbLine
 10
388.895016
 20
604.476283
 30
0.0
 11
388.895016
 21
558.396587
 31
0.0
  0
LINE
  5
1689
100
AcDbEntity
  8
VHH-025
100
AcDbLine
 10
392.395016
 20
610.719456
 30
0.0
 11
392.395016
 21
543.217767
 31
0.0
  0
LINE
  5
168A
100
AcDbEntity
  8
VHH-025
100
AcDbLine
 10
304.153229
 20
511.7
 30
0.0
 11
328.21093
 21
511.7
 31
0.0
  0
SPLINE
  5
168B
100
AcDbEntity
  8
VHH-025
100
AcDbSpline
210
0.0
220
0.0
230
1.0
 70
     8
 71
     3
 72
    13
 73
     9
 74
     7
 42
0.0000001
 43
0.0000001
 44
0.0000000001
 40
0.0
 40
0.0
 40
0.0
 40
0.0
 40
3.284478271109898
 40
5.848013776661412
 40
8.811210366642434
 40
13.31059109350569
 40
22.19952180646371
 40
44.15308546549741
 40
44.15308546549741
 40
44.15308546549741
 40
44.15308546549741
 10
312.392825146514
 20
543.2177674662393
 30
0.0
 10
312.54100337733
 20
542.1136587897732
 30
0.0
 10
312.8048347269952
 20
540.1477932190678
 30
0.0
 10
314.6029740807133
 20
537.7197369067349
 30
0.0
 10
317.4674753514805
 20
535.7983223500514
 30
0.0
 10
323.074898502793
 20
535.600604129005
 30
0.0
 10
334.7387649261178
 20
535.5017952914071
 30
0.0
 10
345.051153167983
 20
535.4672750274938
 30
0.0
 10
352.3914697135233
 20
535.4427036422416
 30
0.0
 11
312.392825146514
 21
543.2177674662393
 31
0.0
 11
313.1305912465914
 21
540.0172208418375
 31
0.0
 11
314.6184780762387
 21
537.929660765963
 31
0.0
 11
317.095913851027
 21
536.3039775210859
 31
0.0
 11
321.5500833522755
 21
535.667737802571
 31
0.0
 11
330.438133412118
 21
535.5426164474706
 31
0.0
 11
352.3914697135233
 21
535.4427036422416
 31
0.0
  0
SPLINE
  5
168C
100
AcDbEntity
  8
VHH-025
100
AcDbSpline
210
0.0
220
0.0
230
1.0
 70
     8
 71
     3
 72
    13
 73
     9
 74
     0
 42
0.0000001
 43
0.0000001
 40
84.6955679326532
 40
84.6955679326532
 40
84.6955679326532
 40
84.6955679326532
 40
85.81548028374967
 40
86.6565862794542
 40
87.78626872105837
 40
90.14984869879972
 40
105.9639654671869
 40
122.7164926965437
 40
122.7164926965437
 40
122.7164926965437
 40
122.7164926965437
 10
315.892825146514
 20
558.3965874588525
 30
0.0
 10
315.9339616122588
 20
558.0189825823022
 30
0.0
 10
316.0110210246284
 20
557.357220083491
 30
0.0
 10
316.6144357454495
 20
556.4939072621277
 30
0.0
 10
317.7952418462891
 20
555.5768441575287
 30
0.0
 10
324.5318172419128
 20
555.7075542287334
 30
0.0
 10
335.8662590592184
 20
555.8663416266058
 30
0.0
 10
346.7798744548699
 20
556.0371169104114
 30
0.0
 10
352.3939205045344
 20
556.1249650040704
 30
0.0
  0
LINE
  5
168D
100
AcDbEntity
  8
VHH-025
100
AcDbLine
 10
292.197705
 20
511.7
 30
0.0
 11
304.153229
 21
511.7
 31
0.0
  0
LINE
  5
168E
100
AcDbEntity
  8
VHH-025
100
AcDbLine
 10
296.60464
 20
552.753206
 30
0.0
 11
274.314849
 21
551.606981
 31
0.0
  0
LINE
  5
168F
100
AcDbEntity
  8
VHH-025
100
AcDbLine
 10
286.238297
 20
511.7
 30
0.0
 11
292.197705
 21
511.7
 31
0.0
  0
SPLINE
  5
1690
100
AcDbEntity
  8
VHH-025
100
AcDbSpline
210
0.0
220
0.0
230
1.0
 70
     8
 71
     3
 72
    12
 73
     8
 74
     6
 42
0.0000001
 43
0.0000001
 44
0.0000000001
 40
0.0
 40
0.0
 40
0.0
 40
0.0
 40
0.430102224716345
 40
0.8434719887057884
 40
1.254524939527736
 40
1.659116521510955
 40
1.863361491889594
 40
1.863361491889594
 40
1.863361491889594
 40
1.863361491889594
 10
286.6437793800169
 20
556.9033544413373
 30
0.0
 10
286.7863012487554
 20
556.9217674132371
 30
0.0
 10
287.0658003937277
 20
556.9578770288906
 30
0.0
 10
287.4582455591468
 20
557.1250705673634
 30
0.0
 10
287.7541428075248
 20
557.4260807858592
 30
0.0
 10
287.8782828803236
 20
557.7503294104996
 30
0.0
 10
287.9133164700659
 20
557.9501079148752
 30
0.0
 10
287.9250691062561
 20
558.0171271412178
 30
0.0
 11
286.6437793800169
 21
556.9033544413373
 31
0.0
 11
287.0672780327595
 21
556.9784331655614
 31
0.0
 11
287.4440339343955
 21
557.1485200620677
 31
0.0
 11
287.7310386213585
 21
557.4427866725431
 31
0.0
 11
287.8854139259538
 21
557.8167687757818
 31
0.0
 11
287.9250691062561
 21
558.0171271412178
 31
0.0
  0
ELLIPSE
  5
1691
100
AcDbEntity
  8
VHH-025
100
AcDbEllipse
 10
280.878281
 20
563.452897
 30
0.0
 11
-0.5847090253523675
 21
-3.845560362166452
 31
0.0
210
0.0
220
0.0
230
1.0
 40
0.934504
 41
0.0
 42
6.283185307179586
  0
LWPOLYLINE
  5
1692
100
AcDbEntity
  8
VHH-025
100
AcDbPolyline
 90
        6
 70
     0
 43
0.0
 10
273.403998
 20
509.322402
 10
273.320642
 20
509.70028
 10
273.100065
 20
510.01822
 10
272.775297
 20
510.228614
 10
272.405797
 20
510.299999
 10
272.404249
 20
510.3
  0
SPLINE
  5
1693
100
AcDbEntity
  8
VHH-025
100
AcDbSpline
210
0.0
220
0.0
230
-1.0
 70
     8
 71
     3
 72
    14
 73
    10
 74
     8
 42
0.0000001
 43
0.0000001
 44
0.0000000001
 40
0.0
 40
0.0
 40
0.0
 40
0.0
 40
0.2461636398491298
 40
0.4473543715030857
 40
0.8348519280356871
 40
1.027990166881787
 40
1.250840234266887
 40
1.448371555080319
 40
1.70278378988016
 40
1.70278378988016
 40
1.70278378988016
 40
1.70278378988016
 10
273.9643914785292
 20
557.4545248284589
 30
0.0
 10
273.9642153725296
 20
557.3722304303867
 30
0.0
 10
273.9638953342461
 20
557.2226764233432
 30
0.0
 10
274.0252891820825
 20
556.949151167383
 30
0.0
 10
274.1285194460512
 20
556.7103981620148
 30
0.0
 10
274.2632716667916
 20
556.4727114014267
 30
0.0
 10
274.4429657312427
 20
556.3639873895169
 30
0.0
 10
274.6487415327984
 20
556.2698163598672
 30
0.0
 10
274.8007008592872
 20
556.2596876389541
 30
0.0
 10
274.8862432049418
 20
556.2539858859558
 30
0.0
 11
273.9643914785292
 21
557.4545248284589
 31
0.0
 11
273.9739212624363
 21
557.2085457220241
 31
0.0
 11
274.0156107585544
 21
557.0117216980411
 31
0.0
 11
274.1634070783666
 21
556.6535170021357
 31
0.0
 11
274.2695139020606
 21
556.4921363302132
 31
0.0
 11
274.4518055728158
 21
556.3639493600999
 31
0.0
 11
274.6340972435691
 21
556.2878680254884
 31
0.0
 11
274.8862432049418
 21
556.2539858859558
 31
0.0
  0
SPLINE
  5
1694
100
AcDbEntity
  8
VHH-025
100
AcDbSpline
210
0.0
220
0.0
230
1.0
 70
     8
 71
     3
 72
    12
 73
     8
 74
     6
 42
0.0000001
 43
0.0000001
 44
0.0000000001
 40
0.0
 40
0.0
 40
0.0
 40
0.0
 40
0.6333227639766334
 40
1.258591262608845
 40
1.575282577616958
 40
2.212493335718306
 40
2.538190609334586
 40
2.538190609334586
 40
2.538190609334586
 40
2.538190609334586
 10
272.6364261643093
 20
553.1419913231107
 30
0.0
 10
272.6622741707176
 20
552.9295174019096
 30
0.0
 10
272.7136414622028
 20
552.5072716909281
 30
0.0
 10
273.04327319242
 20
552.0669763418799
 30
0.0
 10
273.4666329955754
 20
551.7539308137648
 30
0.0
 10
273.8845203823872
 20
551.6053710274948
 30
0.0
 10
274.2060826978912
 20
551.6065737614103
 30
0.0
 10
274.3148490244848
 20
551.6069805782031
 30
0.0
 11
272.6364261643093
 21
553.1419913231107
 31
0.0
 11
272.7676496824015
 21
552.522412343746
 31
0.0
 11
273.132264257666
 21
552.0144586973506
 31
0.0
 11
273.3868542514346
 21
551.8261044458072
 31
0.0
 11
273.989362225192
 21
551.618687735297
 31
0.0
 11
274.3148490244848
 21
551.6069805782031
 31
0.0
  0
LINE
  5
1695
100
AcDbEntity
  8
VHH-025
100
AcDbLine
 10
280.291227
 20
511.7
 30
0.0
 11
283.263192
 21
511.7
 31
0.0
  0
LINE
  5
1696
100
AcDbEntity
  8
VHH-025
100
AcDbLine
 10
289.12868
 20
554.133586
 30
0.0
 11
275.001299
 21
553.369907
 31
0.0
  0
LINE
  5
1697
100
AcDbEntity
  8
VHH-025
100
AcDbLine
 10
286.643779
 20
556.903354
 30
0.0
 11
274.886243
 21
556.253986
 31
0.0
  0
LINE
  5
1698
100
AcDbEntity
  8
VHH-025
100
AcDbLine
 10
270.492825
 20
509.7
 30
0.0
 11
270.492825
 21
508.7
 31
0.0
  0
LINE
  5
1699
100
AcDbEntity
  8
VHH-025
100
AcDbLine
 10
270.492825
 20
508.7
 30
0.0
 11
270.492825
 21
508.1
 31
0.0
  0
LINE
  5
169A
100
AcDbEntity
  8
VHH-025
100
AcDbLine
 10
260.492825
 20
509.1
 30
0.0
 11
257.092825
 21
509.1
 31
0.0
  0
LINE
  5
169B
100
AcDbEntity
  8
VHH-025
100
AcDbLine
 10
257.092825
 20
509.7
 30
0.0
 11
260.741353
 21
509.7
 31
0.0
  0
LINE
  5
169C
100
AcDbEntity
  8
VHH-025
100
AcDbLine
 10
265.257284
 20
510.3
 30
0.0
 11
265.257284
 21
510.9
 31
0.0
  0
LINE
  5
169D
100
AcDbEntity
  8
VHH-025
100
AcDbLine
 10
261.741353
 20
508.7
 30
0.0
 11
260.741353
 21
509.7
 31
0.0
  0
LINE
  5
169E
100
AcDbEntity
  8
VHH-025
100
AcDbLine
 10
261.492825
 20
508.1
 30
0.0
 11
260.492825
 21
509.1
 31
0.0
  0
LINE
  5
169F
100
AcDbEntity
  8
VHH-025
100
AcDbLine
 10
270.492825
 20
508.1
 30
0.0
 11
261.492825
 21
508.1
 31
0.0
  0
LINE
  5
16A0
100
AcDbEntity
  8
VHH-025
100
AcDbLine
 10
270.492825
 20
508.7
 30
0.0
 11
261.741353
 21
508.7
 31
0.0
  0
LINE
  5
16A1
100
AcDbEntity
  8
VHH-025
100
AcDbLine
 10
260.741353
 20
509.7
 30
0.0
 11
270.492825
 21
509.7
 31
0.0
  0
LINE
  5
16A2
100
AcDbEntity
  8
VHH-025
100
AcDbLine
 10
274.474312
 20
553.870754
 30
0.0
 11
274.481198
 21
556.055703
 31
0.0
  0
LINE
  5
16A3
100
AcDbEntity
  8
VHH-025
100
AcDbLine
 10
256.707274
 20
511.7
 30
0.0
 11
280.291227
 21
511.7
 31
0.0
  0
LINE
  5
16A4
100
AcDbEntity
  8
VHH-025
100
AcDbLine
 10
274.171454
 20
556.638215
 30
0.0
 11
275.883969
 21
553.417621
 31
0.0
  0
LINE
  5
16A5
100
AcDbEntity
  8
VHH-025
100
AcDbLine
 10
283.263192
 20
511.7
 30
0.0
 11
286.238297
 21
511.7
 31
0.0
  0
ARC
  5
16A6
100
AcDbEntity
  8
VHH-025
100
AcDbCircle
 10
289.101691
 20
554.632858
 30
0.0
 40
0.5
100
AcDbArc
 50
273.09421
 51
359.745727
  0
LINE
  5
16A7
100
AcDbEntity
  8
VHH-025
100
AcDbLine
 10
287.984906
 20
556.492136
 30
0.0
 11
289.215688
 21
554.13829
 31
0.0
  0
SPLINE
  5
16A8
100
AcDbEntity
  8
VHH-025
100
AcDbSpline
210
0.0
220
0.0
230
1.0
 70
     8
 71
     3
 72
    20
 73
    16
 74
     0
 42
0.0000001
 43
0.0000001
 40
0.0
 40
0.0
 40
0.0
 40
0.0
 40
0.3918367249981683
 40
0.3918367249981683
 40
0.6525501684806338
 40
0.6525501684806338
 40
1.182440120300543
 40
1.182440120300543
 40
1.712330072120452
 40
1.712330072120452
 40
2.006270928035041
 40
2.006270928035041
 40
2.315289501487082
 40
2.315289501487082
 40
2.616402084268149
 40
2.616402084268149
 40
2.616402084268149
 40
2.616402084268149
 10
296.4969912262031
 20
553.4448793183233
 30
0.0
 10
296.6275885842433
 20
553.4652047948707
 30
0.0
 10
296.7397706229157
 20
553.4834693973912
 30
0.0
 10
296.8893840871814
 20
553.5193358176961
 30
0.0
 10
296.9390903327521
 20
553.5348291204504
 30
0.0
 10
297.0619067896596
 20
553.5841206296567
 30
0.0
 10
297.1465105908673
 20
553.6366299244705
 30
0.0
 10
297.3072512974258
 20
553.7782206218085
 30
0.0
 10
297.3805387383336
 20
553.8656042831976
 30
0.0
 10
297.4649620330901
 20
554.0052175410233
 30
0.0
 10
297.4896242242148
 20
554.0559666098329
 30
0.0
 10
297.5281162315286
 20
554.1581088020198
 30
0.0
 10
297.5408274490046
 20
554.2062883098083
 30
0.0
 10
297.565288128505
 20
554.3462616220836
 30
0.0
 10
297.5751120070826
 20
554.4317513268857
 30
0.0
 10
297.5860599025645
 20
554.5320804752996
 30
0.0
  0
SPLINE
  5
16A9
100
AcDbEntity
  8
VHH-025
100
AcDbSpline
210
0.0
220
0.0
230
1.0
 70
     8
 71
     3
 72
    11
 73
     7
 74
     5
 42
0.0000001
 43
0.0000001
 44
0.0000000001
 40
0.0
 40
0.0
 40
0.0
 40
0.0
 40
0.6629926957091156
 40
1.324539577353706
 40
2.135160944774346
 40
2.616402084267626
 40
2.616402084267626
 40
2.616402084267626
 40
2.616402084267626
 10
296.6046395578842
 20
552.7532061030792
 30
0.0
 10
296.8256119398367
 20
552.787597066529
 30
0.0
 10
297.2670748206386
 20
552.8563039957114
 30
0.0
 10
297.8653569450725
 20
553.282164396186
 30
0.0
 10
298.2174624967121
 20
553.8653584337148
 30
0.0
 10
298.2644322233591
 20
554.2958003102681
 30
0.0
 10
298.2819292593458
 20
554.4561473580765
 30
0.0
 11
296.6046395578842
 21
552.7532061030792
 31
0.0
 11
297.2499381355455
 21
552.9053542553251
 31
0.0
 11
297.7938717049737
 21
553.2818918346752
 31
0.0
 11
298.2036422429291
 21
553.9813166751996
 31
0.0
 11
298.2819292593458
 21
554.4561473580765
 31
0.0
  0
LWPOLYLINE
  5
16AA
100
AcDbEntity
  8
VHH-025
100
AcDbPolyline
 90
        4
 70
     1
 43
0.0
 10
294.11203
 20
566.035148
 10
294.862308
 20
566.035148
 10
294.862308
 20
561.770476
 10
294.11203
 20
561.770476
  0
LINE
  5
16AB
100
AcDbEntity
  8
VHH-025
100
AcDbLine
 10
296.56869
 20
553.452282
 30
0.0
 11
291.663729
 21
553.200051
 31
0.0
  0
CIRCLE
  5
16AC
100
AcDbEntity
  8
VHH-025
100
AcDbCircle
 10
294.581311
 20
577.554525
 30
0.0
 40
1.51318
  0
SPLINE
  5
16AD
100
AcDbEntity
  8
VHH-025
100
AcDbSpline
210
0.0
220
0.0
230
-1.0
 70
     8
 71
     3
 72
    17
 73
    13
 74
    11
 42
0.0000001
 43
0.0000001
 44
0.0000000001
 40
0.0
 40
0.0
 40
0.0
 40
0.0
 40
0.5545798661044809
 40
1.65356217845103
 40
2.750923934510153
 40
3.848571212510978
 40
4.674193321129976
 40
5.488636099266747
 40
8.524172564827331
 40
12.84394436806115
 40
16.51294489443665
 40
20.18194542081152
 40
20.18194542081152
 40
20.18194542081152
 40
20.18194542081152
 10
247.2087686755703
 20
541.8853574984491
 30
0.0
 10
247.1808588701356
 20
541.7026698175606
 30
0.0
 10
247.0976416430139
 20
541.1579593835015
 30
0.0
 10
246.8633103096035
 20
540.264623735307
 30
0.0
 10
246.3319752098093
 20
539.2910481188895
 30
0.0
 10
245.6629617193218
 20
538.5299702545462
 30
0.0
 10
244.9454565159822
 20
537.9564970038731
 30
0.0
 10
244.0722307256166
 20
536.6443091403938
 30
0.0
 10
243.2577763648265
 20
534.0215989233549
 30
0.0
 10
242.2054233717756
 20
530.4990277768233
 30
0.0
 10
241.7756711683715
 20
526.6252619162178
 30
0.0
 10
241.406429466953
 20
524.2084207388912
 30
0.0
 10
241.2218086162438
 20
523.000000150228
 30
0.0
 11
247.2087686755703
 21
541.8853574984491
 31
0.0
 11
247.1185559843788
 21
541.338164206973
 31
0.0
 11
246.8213132766077
 21
540.2801429900177
 31
0.0
 11
246.2990075809766
 21
539.3150525362402
 31
0.0
 11
245.5772789692937
 21
538.4880474830629
 31
0.0
 11
244.9738314027754
 21
537.9245735256313
 31
0.0
 11
244.5020486810417
 21
537.2606924351243
 31
0.0
 11
243.3911078033206
 21
534.4357513738
 31
0.0
 11
242.2801669255995
 21
530.2612767004761
 31
0.0
 11
241.7509877709226
 21
526.6306384253517
 31
0.0
 11
241.2218086162438
 21
523.000000150228
 31
0.0
  0
SPLINE
  5
16AE
100
AcDbEntity
  8
VHH-025
100
AcDbSpline
210
0.0
220
0.0
230
1.0
 70
     8
 71
     3
 72
    13
 73
     9
 74
     7
 42
0.0000001
 43
0.0000001
 44
0.0000000001
 40
0.0
 40
0.0
 40
0.0
 40
0.0
 40
5.157331242127678
 40
11.03348381863841
 40
14.6191666271849
 40
16.78242660352459
 40
17.89174384221371
 40
18.52503597702162
 40
18.52503597702162
 40
18.52503597702162
 40
18.52503597702162
 10
247.8532062242893
 20
523.0000001114835
 30
0.0
 10
247.942222004985
 20
524.7169780778854
 30
0.0
 10
248.1326604565404
 20
528.3902439046967
 30
0.0
 10
248.2614443860772
 20
533.2602549082187
 30
0.0
 10
248.2825671734073
 20
537.1399900125465
 30
0.0
 10
248.037051890095
 20
539.4167616270006
 30
0.0
 10
247.7589549194849
 20
540.6932364663013
 30
0.0
 10
247.5551380278162
 20
541.2376587941419
 30
0.0
 10
247.4810677075265
 20
541.4355105809386
 30
0.0
 11
247.8532062242893
 21
523.0000001114835
 31
0.0
 11
248.0998815065368
 21
528.1514287333471
 31
0.0
 11
248.2561048132838
 21
534.0255042674939
 31
0.0
 11
248.2010272431862
 21
537.6107640439645
 31
0.0
 11
247.9486994997378
 21
539.7592575708618
 31
0.0
 11
247.692746846943
 21
540.8386430328632
 31
0.0
 11
247.4810677075265
 21
541.4355105809386
 31
0.0
  0
SPLINE
  5
16AF
100
AcDbEntity
  8
VHH-025
100
AcDbSpline
210
0.0
220
0.0
230
1.0
 70
     8
 71
     3
 72
    11
 73
     7
 74
     5
 42
0.0000001
 43
0.0000001
 44
0.0000000001
 40
0.0
 40
0.0
 40
0.0
 40
0.0
 40
0.650158583643722
 40
1.328696847749662
 40
2.007498148688771
 40
2.665365116564809
 40
2.665365116564809
 40
2.665365116564809
 40
2.665365116564809
 10
242.2737548801478
 20
513.2798863506819
 30
0.0
 10
242.3122442430841
 20
513.0617176408106
 30
0.0
 10
242.3909030449395
 20
512.6158570702109
 30
0.0
 10
242.8813073612956
 20
512.1199186768701
 30
0.0
 10
243.4690510430866
 20
511.7706116462878
 30
0.0
 10
243.9174012086795
 20
511.7232902761222
 30
0.0
 10
244.1380653561473
 20
511.7000001546816
 30
0.0
 11
242.2737548801478
 21
513.2798863506819
 31
0.0
 11
242.4481055835922
 21
512.6535413849528
 31
0.0
 11
242.8973104925889
 21
512.1449854631614
 31
0.0
 11
243.4902446344867
 21
511.8145307619865
 31
0.0
 11
244.1380653561473
 21
511.7000001546816
 31
0.0
  0
SPLINE
  5
16B0
100
AcDbEntity
  8
VHH-025
100
AcDbSpline
210
0.0
220
0.0
230
1.0
 70
     8
 71
     3
 72
    12
 73
     8
 74
     6
 42
0.0000001
 43
0.0000001
 44
0.0000000001
 40
0.0
 40
0.0
 40
0.0
 40
0.0
 40
0.5662025144873023
 40
1.132136061659382
 40
1.697787119143932
 40
2.263116602111067
 40
2.828292171028441
 40
2.828292171028441
 40
2.828292171028441
 40
2.828292171028441
 10
248.2392952419422
 20
513.4078597155207
 30
0.0
 10
248.2778294782161
 20
513.220990630652
 30
0.0
 10
248.354879645564
 20
512.8473412307005
 30
0.0
 10
248.6937881745841
 20
512.3795073738366
 30
0.0
 10
249.1090164371872
 20
511.9881665273053
 30
0.0
 10
249.641466883966
 20
511.7617161549866
 30
0.0
 10
250.0170305558914
 20
511.7205702874978
 30
0.0
 10
250.2047868260569
 20
511.7000001546816
 30
0.0
 11
248.2392952419422
 21
513.4078597155207
 31
0.0
 11
248.3921517311473
 21
512.8626806796805
 31
0.0
 11
248.7066034106474
 21
512.3921480866815
 31
0.0
 11
249.1286778301482
 21
512.0155656876818
 31
0.0
 11
249.6466866356486
 21
511.7891494741811
 31
0.0
 11
250.2047868260569
 21
511.7000001546816
 31
0.0
  0
LINE
  5
16B1
100
AcDbEntity
  8
VHH-025
100
AcDbLine
 10
247.826926
 20
522.0
 30
0.0
 11
248.239295
 21
513.40786
 31
0.0
  0
LINE
  5
16B2
100
AcDbEntity
  8
VHH-025
100
AcDbLine
 10
241.195655
 20
522.0
 30
0.0
 11
242.273755
 21
513.279886
 31
0.0
  0
LINE
  5
16B3
100
AcDbEntity
  8
VHH-025
100
AcDbLine
 10
243.336878
 20
523.0
 30
0.0
 11
243.196104
 21
522.0
 31
0.0
  0
ARC
  5
16B4
100
AcDbEntity
  8
VHH-025
100
AcDbCircle
 10
257.092825
 20
510.7
 30
0.0
 40
1.0
100
AcDbArc
 50
90.0
 51
270.0
  0
ARC
  5
16B5
100
AcDbEntity
  8
VHH-025
100
AcDbCircle
 10
257.092825
 20
510.7
 30
0.0
 40
1.6
100
AcDbArc
 50
141.317813
 51
270.0
  0
CIRCLE
  5
16B6
100
AcDbEntity
  8
VHH-025
100
AcDbCircle
 10
294.581311
 20
577.554525
 30
0.0
 40
2.21318
  0
LINE
  5
16B7
100
AcDbEntity
  8
VHH-025
100
AcDbLine
 10
351.257437
 20
579.954619
 30
0.0
 11
348.545381
 21
579.954619
 31
0.0
  0
LINE
  5
16B8
100
AcDbEntity
  8
VHH-025
100
AcDbLine
 10
357.457437
 20
579.954619
 30
0.0
 11
354.745381
 21
579.954619
 31
0.0
  0
LINE
  5
16B9
100
AcDbEntity
  8
VHH-025
100
AcDbLine
 10
333.641737
 20
579.801541
 30
0.0
 11
331.141737
 21
579.801541
 31
0.0
  0
SPLINE
  5
16BA
100
AcDbEntity
  8
VHH-025
100
AcDbSpline
210
0.0
220
0.0
230
1.0
 70
     8
 71
     3
 72
    13
 73
     9
 74
     7
 42
0.0000001
 43
0.0000001
 44
0.0000000001
 40
0.0
 40
0.0
 40
0.0
 40
0.0
 40
3.28447827110949
 40
5.848013776662059
 40
8.811210366641562
 40
13.31059109350662
 40
22.19952180646464
 40
44.15308546549833
 40
44.15308546549833
 40
44.15308546549833
 40
44.15308546549833
 10
392.395015862553
 20
543.2177674662393
 30
0.0
 10
392.246837631738
 20
542.1136587897731
 30
0.0
 10
391.9830062820743
 20
540.1477932190669
 30
0.0
 10
390.1848669283535
 20
537.7197369067358
 30
0.0
 10
387.3203656575877
 20
535.7983223500505
 30
0.0
 10
381.7129425062741
 20
535.6006041290059
 30
0.0
 10
370.0490760829495
 20
535.5017952914064
 30
0.0
 10
359.736687841084
 20
535.4672750274934
 30
0.0
 10
352.3963712955437
 20
535.4427036422416
 30
0.0
 11
392.395015862553
 21
543.2177674662393
 31
0.0
 11
391.6572497624774
 21
540.0172208418375
 31
0.0
 11
390.1693629328283
 21
537.929660765963
 31
0.0
 11
387.6919271580418
 21
536.3039775210859
 31
0.0
 11
383.2377576567914
 21
535.667737802571
 31
0.0
 11
374.3497075969489
 21
535.5426164474706
 31
0.0
 11
352.3963712955437
 21
535.4427036422416
 31
0.0
  0
SPLINE
  5
16BB
100
AcDbEntity
  8
VHH-025
100
AcDbSpline
210
0.0
220
0.0
230
1.0
 70
     8
 71
     3
 72
    13
 73
     9
 74
     0
 42
0.0000001
 43
0.0000001
 40
84.6955679326532
 40
84.6955679326532
 40
84.6955679326532
 40
84.6955679326532
 40
85.81548028374967
 40
86.6565862794542
 40
87.78626872105837
 40
90.14984869879972
 40
105.9639654671869
 40
122.7164926965437
 40
122.7164926965437
 40
122.7164926965437
 40
122.7164926965437
 10
388.895015862553
 20
558.3965874588525
 30
0.0
 10
388.8538793968082
 20
558.0189825823022
 30
0.0
 10
388.7768199844385
 20
557.357220083491
 30
0.0
 10
388.1734052636175
 20
556.4939072621277
 30
0.0
 10
386.9925991627797
 20
555.5768441575287
 30
0.0
 10
380.2560237671541
 20
555.7075542287334
 30
0.0
 10
368.9215819498485
 20
555.8663416266058
 30
0.0
 10
358.0079665541989
 20
556.0371169104114
 30
0.0
 10
352.3939205045344
 20
556.1249650040704
 30
0.0
  0
LINE
  5
16BC
100
AcDbEntity
  8
VHH-025
100
AcDbLine
 10
376.57472
 20
511.7
 30
0.0
 11
400.632421
 21
511.7
 31
0.0
  0
SPLINE
  5
16BD
100
AcDbEntity
  8
VHH-025
100
AcDbSpline
210
0.0
220
0.0
230
1.0
 70
     8
 71
     3
 72
    12
 73
     8
 74
     0
 42
0.0000001
 43
0.0000001
 40
1.820596868471746
 40
1.820596868471746
 40
1.820596868471746
 40
1.820596868471746
 40
4.503295473557569
 40
6.216955522489968
 40
7.774552440697402
 40
9.232972112989187
 40
10.8164521343443
 40
10.8164521343443
 40
10.8164521343443
 40
10.8164521343443
 10
370.8552424419749
 20
548.4333369542223
 30
0.0
 10
371.3180629079825
 20
548.447997449321
 30
0.0
 10
372.0300480371943
 20
548.5817068106921
 30
0.0
 10
372.7391394431642
 20
549.3649230906016
 30
0.0
 10
372.7925729734824
 20
550.2671833980116
 30
0.0
 10
372.0707340326053
 20
550.7518270163959
 30
0.0
 10
371.5614759329646
 20
550.7539290813451
 30
0.0
 10
371.2963784255816
 20
550.7550233244778
 30
0.0
  0
SPLINE
  5
16BE
100
AcDbEntity
  8
VHH-025
100
AcDbSpline
210
0.0
220
0.0
230
1.0
 70
     8
 71
     3
 72
    12
 73
     8
 74
     0
 42
0.0000001
 43
0.0000001
 40
0.3004138362153372
 40
0.3004138362153372
 40
0.3004138362153372
 40
0.3004138362153372
 40
0.6531836346659445
 40
2.201425060069765
 40
3.775834883110177
 40
5.170639203720888
 40
5.549375987942882
 40
5.549375987942882
 40
5.549375987942882
 40
5.549375987942882
 10
372.0734990731407
 20
546.5571220457436
 30
0.0
 10
372.0635847843559
 20
546.6152425106716
 30
0.0
 10
372.0163741372589
 20
546.9276352444962
 30
0.0
 10
372.06320610714
 20
547.4814488339257
 30
0.0
 10
371.9212758045951
 20
548.3627740513143
 30
0.0
 10
371.2851395016068
 20
548.434272443515
 30
0.0
 10
370.9767165524272
 20
548.4320828407922
 30
0.0
 10
370.8552424419749
 20
548.4333369542223
 30
0.0
  0
SPLINE
  5
16BF
100
AcDbEntity
  8
VHH-025
100
AcDbSpline
210
0.0
220
0.0
230
1.0
 70
     8
 71
     3
 72
    20
 73
    16
 74
     0
 42
0.0000001
 43
0.0000001
 40
3.141592653589793
 40
3.141592653589793
 40
3.141592653589793
 40
3.141592653589793
 40
3.566852563487359
 40
3.566852563487359
 40
4.097334864786621
 40
4.097334864786621
 40
4.627817166085884
 40
4.627817166085884
 40
5.158299467385146
 40
5.158299467385146
 40
5.688781768684408
 40
5.688781768684408
 40
6.21926406998367
 40
6.21926406998367
 40
6.283185307179586
 40
6.283185307179586
 40
6.283185307179586
 40
6.283185307179586
 10
373.7917372985148
 20
574.7015412051109
 30
0.0
 10
373.7917372985148
 20
574.6079094179317
 30
0.0
 10
373.8147990595016
 20
574.5140398747339
 30
0.0
 10
373.9188935389111
 20
574.3155401953486
 30
0.0
 10
374.0139836824992
 20
574.2142549173427
 30
0.0
 10
374.2605055758458
 20
574.0638440317265
 30
0.0
 10
374.4114047040975
 20
574.015666358368
 30
0.0
 10
374.7227428608539
 20
573.992872068657
 30
0.0
 10
374.8822954362758
 20
574.0183587110891
 30
0.0
 10
375.1591957399732
 20
574.1326732638558
 30
0.0
 10
375.275773407845
 20
574.2208567932834
 30
0.0
 10
375.4366244851962
 20
574.4263696046259
 30
0.0
 10
375.4815278417345
 20
574.5426684718818
 30
0.0
 10
375.491216525007
 20
574.6733934097606
 30
0.0
 10
375.4917372985155
 20
574.6874673186753
 30
0.0
 10
375.4917372985155
 20
574.7015412051109
 30
0.0
  0
SPLINE
  5
16C0
100
AcDbEntity
  8
VHH-025
100
AcDbSpline
210
0.0
220
0.0
230
-1.0
 70
     8
 71
     3
 72
    20
 73
    16
 74
     0
 42
0.0000001
 43
0.0000001
 40
3.141592653589793
 40
3.141592653589793
 40
3.141592653589793
 40
3.141592653589793
 40
3.566852563487359
 40
3.566852563487359
 40
4.097334864786621
 40
4.097334864786621
 40
4.627817166085884
 40
4.627817166085884
 40
5.158299467385146
 40
5.158299467385146
 40
5.688781768684408
 40
5.688781768684408
 40
6.21926406998367
 40
6.21926406998367
 40
6.283185307179586
 40
6.283185307179586
 40
6.283185307179586
 40
6.283185307179586
 10
375.4917372985155
 20
576.0015412051111
 30
0.0
 10
375.4917372985155
 20
576.0951729922903
 30
0.0
 10
375.4686755375268
 20
576.1890425354872
 30
0.0
 10
375.3645810581192
 20
576.3875422148726
 30
0.0
 10
375.2694909145293
 20
576.4888274928785
 30
0.0
 10
375.0229690211826
 20
576.6392383784945
 30
0.0
 10
374.8720698929328
 20
576.6874160518532
 30
0.0
 10
374.5607317361764
 20
576.710210341564
 30
0.0
 10
374.4011791607527
 20
576.6847236991321
 30
0.0
 10
374.1242788570571
 20
576.5704091463653
 30
0.0
 10
374.0077011891835
 20
576.4822256169386
 30
0.0
 10
373.8468501118341
 20
576.2767128055952
 30
0.0
 10
373.8019467552958
 20
576.1604139383402
 30
0.0
 10
373.7922580720232
 20
576.0296890004615
 30
0.0
 10
373.7917372985148
 20
576.0156150915459
 30
0.0
 10
373.7917372985148
 20
576.0015412051111
 30
0.0
  0
SPLINE
  5
16C1
100
AcDbEntity
  8
VHH-025
100
AcDbSpline
210
0.0
220
0.0
230
1.0
 70
     8
 71
     3
 72
    12
 73
     8
 74
     0
 42
0.0000001
 43
0.0000001
 40
1.820596868471746
 40
1.820596868471746
 40
1.820596868471746
 40
1.820596868471746
 40
4.503295473557569
 40
6.216955522489968
 40
7.774552440697402
 40
9.232972112989187
 40
10.8164521343443
 40
10.8164521343443
 40
10.8164521343443
 40
10.8164521343443
 10
344.7858461911191
 20
548.4333369542223
 30
0.0
 10
345.2486666571267
 20
548.447997449321
 30
0.0
 10
345.9606517863385
 20
548.5817068106921
 30
0.0
 10
346.6697431923084
 20
549.3649230906016
 30
0.0
 10
346.7231767226266
 20
550.2671833980116
 30
0.0
 10
346.0013377817495
 20
550.7518270163959
 30
0.0
 10
345.4920796821088
 20
550.7539290813451
 30
0.0
 10
345.2269821747258
 20
550.7550233244778
 30
0.0
  0
SPLINE
  5
16C2
100
AcDbEntity
  8
VHH-025
100
AcDbSpline
210
0.0
220
0.0
230
1.0
 70
     8
 71
     3
 72
    12
 73
     8
 74
     0
 42
0.0000001
 43
0.0000001
 40
0.3004138362153372
 40
0.3004138362153372
 40
0.3004138362153372
 40
0.3004138362153372
 40
0.6531836346659445
 40
2.201425060069765
 40
3.775834883110177
 40
5.170639203720888
 40
5.549375987942882
 40
5.549375987942882
 40
5.549375987942882
 40
5.549375987942882
 10
346.0041028222849
 20
546.5571220457436
 30
0.0
 10
345.9941885335001
 20
546.6152425106716
 30
0.0
 10
345.9469778864031
 20
546.9276352444962
 30
0.0
 10
345.9938098562843
 20
547.4814488339257
 30
0.0
 10
345.8518795537393
 20
548.3627740513143
 30
0.0
 10
345.215743250751
 20
548.434272443515
 30
0.0
 10
344.9073203015714
 20
548.4320828407922
 30
0.0
 10
344.7858461911191
 20
548.4333369542223
 30
0.0
  0
SPLINE
  5
16C3
100
AcDbEntity
  8
VHH-025
100
AcDbSpline
210
0.0
220
0.0
230
1.0
 70
    11
 71
     3
 72
    15
 73
    11
 74
     9
 42
0.0000001
 43
0.0000001
 44
0.0000000001
 40
0.0
 40
0.0
 40
0.0
 40
0.0
 40
0.5147647394070095
 40
2.457789820814682
 40
3.944434646996009
 40
5.59179142545904
 40
7.104516291262754
 40
9.337163693806559
 40
10.73578930127726
 40
12.20445453441431
 40
12.20445453441431
 40
12.20445453441431
 40
12.20445453441431
 10
363.9563260531731
 20
549.1701369677571
 30
0.0
 10
364.0206269445994
 20
549.3285136722404
 30
0.0
 10
364.3276372433218
 20
550.084697269007
 30
0.0
 10
365.5808651291908
 20
551.0489547029696
 30
0.0
 10
367.4189742624247
 20
550.3234165821624
 30
0.0
 10
367.7520230771509
 20
548.5934052727247
 30
0.0
 10
366.9907090636538
 20
546.8944137153982
 30
0.0
 10
364.9018128837534
 20
546.1536387965357
 30
0.0
 10
363.6137628328921
 20
547.7022612138419
 30
0.0
 10
363.8402938140955
 20
548.6729414128035
 30
0.0
 10
363.9563260531731
 20
549.1701369677571
 30
0.0
 11
363.9563260531731
 21
549.1701369677571
 31
0.0
 11
364.1700159505353
 21
549.6384524220206
 31
0.0
 11
365.7746577886127
 21
550.7341125145999
 31
0.0
 11
367.1560187038621
 21
550.1846083189534
 31
0.0
 11
367.5788850996914
 21
548.5924499201669
 31
0.0
 11
366.9304895816394
 21
547.2257313054583
 31
0.0
 11
364.7738726629186
 21
546.6480480964478
 31
0.0
 11
363.857657416368
 21
547.7047898869819
 31
0.0
 11
363.9563260531731
 21
549.1701369677571
 31
0.0
  0
LINE
  5
16C4
100
AcDbEntity
  8
VHH-025
100
AcDbLine
 10
367.799141
 20
544.402934
 30
0.0
 11
372.31497
 21
544.402934
 31
0.0
  0
LINE
  5
16C5
100
AcDbEntity
  8
VHH-025
100
AcDbLine
 10
364.486696
 20
511.7
 30
0.0
 11
370.531746
 21
511.7
 31
0.0
  0
LINE
  5
16C6
100
AcDbEntity
  8
VHH-025
100
AcDbLine
 10
352.392825
 20
511.7
 30
0.0
 11
364.486696
 21
511.7
 31
0.0
  0
LINE
  5
16C7
100
AcDbEntity
  8
VHH-025
100
AcDbLine
 10
360.54441
 20
550.771731
 30
0.0
 11
359.673651
 21
546.557122
 31
0.0
  0
LINE
  5
16C8
100
AcDbEntity
  8
VHH-025
100
AcDbLine
 10
358.4489
 20
550.755023
 30
0.0
 11
357.581593
 21
546.557122
 31
0.0
  0
LINE
  5
16C9
100
AcDbEntity
  8
VHH-025
100
AcDbLine
 10
359.673651
 20
546.557122
 30
0.0
 11
362.820198
 21
546.557122
 31
0.0
  0
LINE
  5
16CA
100
AcDbEntity
  8
VHH-025
100
AcDbLine
 10
350.964142
 20
550.755023
 30
0.0
 11
351.652006
 21
546.557122
 31
0.0
  0
LINE
  5
16CB
100
AcDbEntity
  8
VHH-025
100
AcDbLine
 10
350.658892
 20
550.755023
 30
0.0
 11
350.964142
 21
550.755023
 31
0.0
  0
LINE
  5
16CC
100
AcDbEntity
  8
VHH-025
100
AcDbLine
 10
348.216493
 20
546.557122
 30
0.0
 11
350.658892
 21
550.755023
 31
0.0
  0
LINE
  5
16CD
100
AcDbEntity
  8
VHH-025
100
AcDbLine
 10
348.682869
 20
547.358711
 30
0.0
 11
351.520658
 21
547.358711
 31
0.0
  0
LINE
  5
16CE
100
AcDbEntity
  8
VHH-025
100
AcDbLine
 10
353.248677
 20
550.755023
 30
0.0
 11
353.615084
 21
546.557122
 31
0.0
  0
LINE
  5
16CF
100
AcDbEntity
  8
VHH-025
100
AcDbLine
 10
356.258132
 20
550.755023
 30
0.0
 11
354.132884
 21
546.557122
 31
0.0
  0
LINE
  5
16D0
100
AcDbEntity
  8
VHH-025
100
AcDbLine
 10
353.615084
 20
546.557122
 30
0.0
 11
354.132884
 21
546.557122
 31
0.0
  0
ARC
  5
16D1
100
AcDbEntity
  8
VHH-025
100
AcDbCircle
 10
358.891737
 20
571.551541
 30
0.0
 40
0.75
100
AcDbArc
 50
270.0
 51
0.0
  0
CIRCLE
  5
16D2
100
AcDbEntity
  8
VHH-025
100
AcDbCircle
 10
357.724774
 20
573.154619
 30
0.0
 40
0.025
  0
LINE
  5
16D3
100
AcDbEntity
  8
VHH-025
100
AcDbLine
 10
350.263619
 20
573.408215
 30
0.0
 11
350.791735
 21
576.048792
 31
0.0
  0
LINE
  5
16D4
100
AcDbEntity
  8
VHH-025
100
AcDbLine
 10
347.688517
 20
576.551541
 30
0.0
 11
350.811146
 21
576.557697
 31
0.0
  0
CIRCLE
  5
16D5
100
AcDbEntity
  8
VHH-025
100
AcDbCircle
 10
351.524774
 20
573.154619
 30
0.0
 40
0.025
  0
LINE
  5
16D6
100
AcDbEntity
  8
VHH-025
100
AcDbLine
 10
353.888517
 20
576.551541
 30
0.0
 11
357.011146
 21
576.557697
 31
0.0
  0
LINE
  5
16D7
100
AcDbEntity
  8
VHH-025
100
AcDbLine
 10
356.463619
 20
573.408215
 30
0.0
 11
356.991735
 21
576.048792
 31
0.0
  0
LINE
  5
16D8
100
AcDbEntity
  8
VHH-025
100
AcDbLine
 10
353.717269
 20
576.107147
 30
0.0
 11
353.18863
 21
573.463956
 31
0.0
  0
LINE
  5
16D9
100
AcDbEntity
  8
VHH-025
100
AcDbLine
 10
353.442226
 20
573.154619
 30
0.0
 11
356.154282
 21
573.154619
 31
0.0
  0
ARC
  5
16DA
100
AcDbEntity
  8
VHH-025
100
AcDbCircle
 10
345.891737
 20
571.551541
 30
0.0
 40
0.75
100
AcDbArc
 50
180.0
 51
270.0
  0
LINE
  5
16DB
100
AcDbEntity
  8
VHH-025
100
AcDbLine
 10
347.517269
 20
576.107147
 30
0.0
 11
346.98863
 21
573.463956
 31
0.0
  0
LINE
  5
16DC
100
AcDbEntity
  8
VHH-025
100
AcDbLine
 10
347.242226
 20
573.154619
 30
0.0
 11
349.954282
 21
573.154619
 31
0.0
  0
LINE
  5
16DD
100
AcDbEntity
  8
VHH-025
100
AcDbLine
 10
345.891737
 20
570.801541
 30
0.0
 11
358.891737
 21
570.801541
 31
0.0
  0
LINE
  5
16DE
100
AcDbEntity
  8
VHH-025
100
AcDbLine
 10
358.322615
 20
544.402934
 30
0.0
 11
359.224728
 21
544.402934
 31
0.0
  0
LINE
  5
16DF
100
AcDbEntity
  8
VHH-025
100
AcDbLine
 10
359.224728
 20
544.402934
 30
0.0
 11
359.544493
 21
540.205033
 31
0.0
  0
LINE
  5
16E0
100
AcDbEntity
  8
VHH-025
100
AcDbLine
 10
361.907894
 20
544.402934
 30
0.0
 11
359.67912
 21
540.205033
 31
0.0
  0
LINE
  5
16E1
100
AcDbEntity
  8
VHH-025
100
AcDbLine
 10
358.322615
 20
544.402934
 30
0.0
 11
357.439623
 21
540.205033
 31
0.0
  0
LINE
  5
16E2
100
AcDbEntity
  8
VHH-025
100
AcDbLine
 10
362.817654
 20
544.402934
 30
0.0
 11
361.934662
 21
540.205033
 31
0.0
  0
LINE
  5
16E3
100
AcDbEntity
  8
VHH-025
100
AcDbLine
 10
359.544493
 20
540.205033
 30
0.0
 11
359.67912
 21
540.205033
 31
0.0
  0
LINE
  5
16E4
100
AcDbEntity
  8
VHH-025
100
AcDbLine
 10
361.907894
 20
544.402934
 30
0.0
 11
362.817654
 21
544.402934
 31
0.0
  0
LINE
  5
16E5
100
AcDbEntity
  8
VHH-025
100
AcDbLine
 10
348.111547
 20
544.402934
 30
0.0
 11
349.832478
 21
540.205033
 31
0.0
  0
LINE
  5
16E6
100
AcDbEntity
  8
VHH-025
100
AcDbLine
 10
351.030348
 20
544.402934
 30
0.0
 11
350.158712
 21
540.205033
 31
0.0
  0
LINE
  5
16E7
100
AcDbEntity
  8
VHH-025
100
AcDbLine
 10
354.521789
 20
544.402934
 30
0.0
 11
354.827038
 21
544.402934
 31
0.0
  0
LINE
  5
16E8
100
AcDbEntity
  8
VHH-025
100
AcDbLine
 10
347.847123
 20
544.402934
 30
0.0
 11
348.111547
 21
544.402934
 31
0.0
  0
LINE
  5
16E9
100
AcDbEntity
  8
VHH-025
100
AcDbLine
 10
349.832478
 20
540.205033
 30
0.0
 11
350.158712
 21
540.205033
 31
0.0
  0
LINE
  5
16EA
100
AcDbEntity
  8
VHH-025
100
AcDbLine
 10
352.545766
 20
541.006622
 30
0.0
 11
355.383555
 21
541.006622
 31
0.0
  0
LINE
  5
16EB
100
AcDbEntity
  8
VHH-025
100
AcDbLine
 10
352.07939
 20
540.205033
 30
0.0
 11
354.521789
 21
544.402934
 31
0.0
  0
LINE
  5
16EC
100
AcDbEntity
  8
VHH-025
100
AcDbLine
 10
354.827038
 20
544.402934
 30
0.0
 11
355.514903
 21
540.205033
 31
0.0
  0
LINE
  5
16ED
100
AcDbEntity
  8
VHH-025
100
AcDbLine
 10
347.847123
 20
544.402934
 30
0.0
 11
346.975486
 21
540.205033
 31
0.0
  0
LINE
  5
16EE
100
AcDbEntity
  8
VHH-025
100
AcDbLine
 10
366.5442
 20
544.402934
 30
0.0
 11
367.232065
 21
540.205033
 31
0.0
  0
LINE
  5
16EF
100
AcDbEntity
  8
VHH-025
100
AcDbLine
 10
366.23895
 20
544.402934
 30
0.0
 11
366.5442
 21
544.402934
 31
0.0
  0
LINE
  5
16F0
100
AcDbEntity
  8
VHH-025
100
AcDbLine
 10
363.796552
 20
540.205033
 30
0.0
 11
366.23895
 21
544.402934
 31
0.0
  0
LINE
  5
16F1
100
AcDbEntity
  8
VHH-025
100
AcDbLine
 10
364.262928
 20
541.006622
 30
0.0
 11
367.100717
 21
541.006622
 31
0.0
  0
LINE
  5
16F2
100
AcDbEntity
  8
VHH-025
100
AcDbLine
 10
350.982395
 20
577.002091
 30
0.0
 11
351.511033
 21
579.645282
 31
0.0
  0
LINE
  5
16F3
100
AcDbEntity
  8
VHH-025
100
AcDbLine
 10
357.182395
 20
577.002091
 30
0.0
 11
357.711033
 21
579.645282
 31
0.0
  0
LINE
  5
16F4
100
AcDbEntity
  8
VHH-025
100
AcDbLine
 10
373.5538
 20
511.7
 30
0.0
 11
376.57472
 21
511.7
 31
0.0
  0
LINE
  5
16F5
100
AcDbEntity
  8
VHH-025
100
AcDbLine
 10
370.531746
 20
511.7
 30
0.0
 11
373.5538
 21
511.7
 31
0.0
  0
LINE
  5
16F6
100
AcDbEntity
  8
VHH-025
100
AcDbLine
 10
368.948724
 20
546.557122
 30
0.0
 11
369.82036
 21
550.755023
 31
0.0
  0
LINE
  5
16F7
100
AcDbEntity
  8
VHH-025
100
AcDbLine
 10
369.338294
 20
548.433337
 30
0.0
 11
370.855242
 21
548.433337
 31
0.0
  0
LINE
  5
16F8
100
AcDbEntity
  8
VHH-025
100
AcDbLine
 10
369.82036
 20
550.755023
 30
0.0
 11
371.296378
 21
550.755023
 31
0.0
  0
CIRCLE
  5
16F9
100
AcDbEntity
  8
VHH-025
100
AcDbCircle
 10
375.436109
 20
550.261906
 30
0.0
 40
0.724411
  0
LINE
  5
16FA
100
AcDbEntity
  8
VHH-025
100
AcDbLine
 10
373.791737
 20
576.001541
 30
0.0
 11
373.791737
 21
574.701541
 31
0.0
  0
LINE
  5
16FB
100
AcDbEntity
  8
VHH-025
100
AcDbLine
 10
370.291737
 20
579.351541
 30
0.0
 11
370.291737
 21
576.151541
 31
0.0
  0
LINE
  5
16FC
100
AcDbEntity
  8
VHH-025
100
AcDbLine
 10
373.741737
 20
579.351541
 30
0.0
 11
370.541737
 21
573.751541
 31
0.0
  0
LINE
  5
16FD
100
AcDbEntity
  8
VHH-025
100
AcDbLine
 10
375.491737
 20
576.001541
 30
0.0
 11
375.491737
 21
574.701541
 31
0.0
  0
CIRCLE
  5
16FE
100
AcDbEntity
  8
VHH-025
100
AcDbCircle
 10
374.488132
 20
544.007773
 30
0.0
 40
0.724411
  0
LINE
  5
16FF
100
AcDbEntity
  8
VHH-025
100
AcDbLine
 10
369.174102
 20
540.17532
 30
0.0
 11
370.051459
 21
544.402934
 31
0.0
  0
SPLINE
  5
1700
100
AcDbEntity
  8
VHH-025
100
AcDbSpline
210
0.0
220
0.0
230
-1.0
 70
     8
 71
     3
 72
    12
 73
     8
 74
     6
 42
0.0000001
 43
0.0000001
 44
0.0000000001
 40
0.0
 40
0.0
 40
0.0
 40
0.0
 40
1.411106911324726
 40
2.125038086020586
 40
2.805834388316208
 40
3.535044224462101
 40
4.326784235140562
 40
4.326784235140562
 40
4.326784235140562
 40
4.326784235140562
 10
339.4853027848193
 20
548.8603060096097
 30
0.0
 10
339.9614921240449
 20
548.869359830047
 30
0.0
 10
340.6786032613302
 20
548.8829943130893
 30
0.0
 10
341.5242450086963
 20
549.4608007999154
 30
0.0
 10
341.5248429203693
 20
550.2991669757189
 30
0.0
 10
340.8340320758984
 20
550.7486213022876
 30
0.0
 10
340.3247351894981
 20
550.7528316180971
 30
0.0
 10
340.0596174914235
 20
550.7550233244778
 30
0.0
 11
339.4853027848193
 21
548.8603060096097
 31
0.0
 11
340.8800711199319
 21
549.0744181450804
 31
0.0
 11
341.4241936316784
 21
549.5366176846878
 31
0.0
 11
341.421601945517
 21
550.2174090538915
 31
0.0
 11
340.8462749018135
 21
550.6654556786029
 31
0.0
 11
340.0596174914235
 21
550.7550233244778
 31
0.0
  0
SPLINE
  5
1701
100
AcDbEntity
  8
VHH-025
100
AcDbSpline
210
0.0
220
0.0
230
1.0
 70
     8
 71
     3
 72
    12
 73
     8
 74
     6
 42
0.0000001
 43
0.0000001
 44
0.0000000001
 40
0.0
 40
0.0
 40
0.0
 40
0.0
 40
1.006217164968555
 40
1.679832645748139
 40
2.56445690978789
 40
3.47269837767135
 40
4.209033191014698
 40
4.209033191014698
 40
4.209033191014698
 40
4.209033191014698
 10
339.9018734733499
 20
548.8603060096097
 30
0.0
 10
340.254725218071
 20
548.8515193790126
 30
0.0
 10
340.8437947554707
 20
548.8368505088751
 30
0.0
 10
341.4373141484527
 20
548.0873096992517
 30
0.0
 10
341.2361516729605
 20
547.1855605123107
 30
0.0
 10
340.528704550782
 20
546.6137757371591
 30
0.0
 10
339.9735489263008
 20
546.5746431053871
 30
0.0
 10
339.7249861701702
 20
546.5571220457436
 30
0.0
 11
339.9018734733499
 21
548.8603060096097
 31
0.0
 11
340.8885655080875
 21
548.6630452388958
 31
0.0
 11
341.297333146259
 21
548.1276324692221
 31
0.0
 11
341.1515868068791
 21
547.2550970297784
 31
0.0
 11
340.4516003545986
 21
546.6763729758399
 31
0.0
 11
339.7249861701702
 21
546.5571220457436
 31
0.0
  0
SPLINE
  5
1702
100
AcDbEntity
  8
VHH-025
100
AcDbSpline
210
0.0
220
0.0
230
1.0
 70
     8
 71
     3
 72
    12
 73
     8
 74
     6
 42
0.0000001
 43
0.0000001
 44
0.0000000001
 40
0.0
 40
0.0
 40
0.0
 40
0.0
 40
1.006217164968555
 40
1.679832645748139
 40
2.56445690978789
 40
3.47269837767135
 40
4.209033191014698
 40
4.209033191014698
 40
4.209033191014698
 40
4.209033191014698
 10
338.5829493571045
 20
542.5082166641545
 30
0.0
 10
338.9358011018256
 20
542.4994300335574
 30
0.0
 10
339.5248706392254
 20
542.4847611634199
 30
0.0
 10
340.1183900322074
 20
541.7352203537965
 30
0.0
 10
339.9172275567151
 20
540.8334711668556
 30
0.0
 10
339.2097804345366
 20
540.2616863917039
 30
0.0
 10
338.6546248100555
 20
540.2225537599319
 30
0.0
 10
338.4060620539248
 20
540.2050327002885
 30
0.0
 11
338.5829493571045
 21
542.5082166641545
 31
0.0
 11
339.5696413918422
 21
542.3109558934406
 31
0.0
 11
339.9784090300136
 21
541.775543123767
 31
0.0
 11
339.8326626906337
 21
540.9030076843232
 31
0.0
 11
339.1326762383532
 21
540.3242836303848
 31
0.0
 11
338.4060620539248
 21
540.2050327002885
 31
0.0
  0
SPLINE
  5
1703
100
AcDbEntity
  8
VHH-025
100
AcDbSpline
210
0.0
220
0.0
230
-1.0
 70
     8
 71
     3
 72
    12
 73
     8
 74
     6
 42
0.0000001
 43
0.0000001
 44
0.0000000001
 40
0.0
 40
0.0
 40
0.0
 40
0.0
 40
1.411106911324726
 40
2.125038086020586
 40
2.805834388316208
 40
3.535044224462101
 40
4.326784235140562
 40
4.326784235140562
 40
4.326784235140562
 40
4.326784235140562
 10
338.166378668574
 20
542.5082166641545
 30
0.0
 10
338.6425680077995
 20
542.5172704845919
 30
0.0
 10
339.3596791450848
 20
542.5309049676341
 30
0.0
 10
340.2053208924508
 20
543.1087114544602
 30
0.0
 10
340.205918804124
 20
543.9470776302637
 30
0.0
 10
339.515107959653
 20
544.3965319568325
 30
0.0
 10
339.0058110732527
 20
544.400742272642
 30
0.0
 10
338.7406933751781
 20
544.4029339790226
 30
0.0
 11
338.166378668574
 21
542.5082166641545
 31
0.0
 11
339.5611470036865
 21
542.7223287996253
 31
0.0
 11
340.105269515433
 21
543.1845283392326
 31
0.0
 11
340.1026778292716
 21
543.8653197084363
 31
0.0
 11
339.5273507855681
 21
544.3133663331478
 31
0.0
 11
338.7406933751781
 21
544.4029339790226
 31
0.0
  0
LINE
  5
1704
100
AcDbEntity
  8
VHH-025
100
AcDbLine
 10
331.23185
 20
511.7
 30
0.0
 11
334.253904
 21
511.7
 31
0.0
  0
LINE
  5
1705
100
AcDbEntity
  8
VHH-025
100
AcDbLine
 10
328.21093
 20
511.7
 30
0.0
 11
331.23185
 21
511.7
 31
0.0
  0
LINE
  5
1706
100
AcDbEntity
  8
VHH-025
100
AcDbLine
 10
334.253904
 20
511.7
 30
0.0
 11
340.298954
 21
511.7
 31
0.0
  0
LINE
  5
1707
100
AcDbEntity
  8
VHH-025
100
AcDbLine
 10
337.771173
 20
546.557122
 30
0.0
 11
339.724986
 21
546.557122
 31
0.0
  0
LINE
  5
1708
100
AcDbEntity
  8
VHH-025
100
AcDbLine
 10
338.642809
 20
550.755023
 30
0.0
 11
337.771173
 21
546.557122
 31
0.0
  0
LINE
  5
1709
100
AcDbEntity
  8
VHH-025
100
AcDbLine
 10
338.642809
 20
550.755023
 30
0.0
 11
340.059617
 21
550.755023
 31
0.0
  0
LINE
  5
170A
100
AcDbEntity
  8
VHH-025
100
AcDbLine
 10
338.249397
 20
548.860306
 30
0.0
 11
339.901873
 21
548.860306
 31
0.0
  0
LINE
  5
170B
100
AcDbEntity
  8
VHH-025
100
AcDbLine
 10
330.891737
 20
579.551541
 30
0.0
 11
330.891737
 21
576.801541
 31
0.0
  0
LINE
  5
170C
100
AcDbEntity
  8
VHH-025
100
AcDbLine
 10
333.891737
 20
576.801541
 30
0.0
 11
333.891737
 21
579.551541
 31
0.0
  0
LINE
  5
170D
100
AcDbEntity
  8
VHH-025
100
AcDbLine
 10
333.891737
 20
576.801541
 30
0.0
 11
335.391737
 21
576.801541
 31
0.0
  0
ARC
  5
170E
100
AcDbEntity
  8
VHH-025
100
AcDbCircle
 10
335.391737
 20
576.551541
 30
0.0
 40
0.25
100
AcDbArc
 50
315.0
 51
90.0
  0
LINE
  5
170F
100
AcDbEntity
  8
VHH-025
100
AcDbLine
 10
332.568514
 20
573.374765
 30
0.0
 11
335.568514
 21
576.374765
 31
0.0
  0
ARC
  5
1710
100
AcDbEntity
  8
VHH-025
100
AcDbCircle
 10
332.391737
 20
573.551541
 30
0.0
 40
0.25
100
AcDbArc
 50
225.0
 51
315.0
  0
ARC
  5
1711
100
AcDbEntity
  8
VHH-025
100
AcDbCircle
 10
329.391737
 20
576.551541
 30
0.0
 40
0.25
100
AcDbArc
 50
90.0
 51
225.0
  0
LINE
  5
1712
100
AcDbEntity
  8
VHH-025
100
AcDbLine
 10
332.214961
 20
573.374765
 30
0.0
 11
329.214961
 21
576.374765
 31
0.0
  0
LINE
  5
1713
100
AcDbEntity
  8
VHH-025
100
AcDbLine
 10
330.891737
 20
576.801541
 30
0.0
 11
329.391737
 21
576.801541
 31
0.0
  0
LINE
  5
1714
100
AcDbEntity
  8
VHH-025
100
AcDbLine
 10
337.323885
 20
544.402934
 30
0.0
 11
336.452249
 21
540.205033
 31
0.0
  0
LINE
  5
1715
100
AcDbEntity
  8
VHH-025
100
AcDbLine
 10
337.323885
 20
544.402934
 30
0.0
 11
338.740693
 21
544.402934
 31
0.0
  0
LINE
  5
1716
100
AcDbEntity
  8
VHH-025
100
AcDbLine
 10
336.452249
 20
540.205033
 30
0.0
 11
338.406062
 21
540.205033
 31
0.0
  0
LINE
  5
1717
100
AcDbEntity
  8
VHH-025
100
AcDbLine
 10
336.930473
 20
542.508217
 30
0.0
 11
338.582949
 21
542.508217
 31
0.0
  0
LINE
  5
1718
100
AcDbEntity
  8
VHH-025
100
AcDbLine
 10
333.46188
 20
551.255023
 30
0.0
 11
331.063684
 21
539.705033
 31
0.0
  0
LINE
  5
1719
100
AcDbEntity
  8
VHH-025
100
AcDbLine
 10
336.212423
 20
551.255023
 30
0.0
 11
333.814228
 21
539.705033
 31
0.0
  0
LINE
  5
171A
100
AcDbEntity
  8
VHH-025
100
AcDbLine
 10
331.10427
 20
551.255023
 30
0.0
 11
328.706074
 21
539.705033
 31
0.0
  0
LINE
  5
171B
100
AcDbEntity
  8
VHH-025
100
AcDbLine
 10
342.879327
 20
546.557122
 30
0.0
 11
343.750964
 21
550.755023
 31
0.0
  0
LINE
  5
171C
100
AcDbEntity
  8
VHH-025
100
AcDbLine
 10
329.139595
 20
551.255023
 30
0.0
 11
326.741399
 21
539.705033
 31
0.0
  0
SPLINE
  5
171D
100
AcDbEntity
  8
VHH-025
100
AcDbSpline
210
0.0
220
0.0
230
1.0
 70
    11
 71
     3
 72
    15
 73
    11
 74
     9
 42
0.0000001
 43
0.0000001
 44
0.0000000001
 40
0.0
 40
0.0
 40
0.0
 40
0.0
 40
0.5147647394070095
 40
2.457789820816183
 40
3.944434646997511
 40
5.591791425460542
 40
7.104516291264255
 40
9.337163693808058
 40
10.73578930127875
 40
12.20445453441568
 40
12.20445453441568
 40
12.20445453441568
 40
12.20445453441568
 10
341.945728664311
 20
542.8242162485217
 30
0.0
 10
342.0100295557373
 20
542.9825929530051
 30
0.0
 10
342.3170398544598
 20
543.7387765497723
 30
0.0
 10
343.57026774033
 20
544.7030339837338
 30
0.0
 10
345.4083768735644
 20
543.9774958629274
 30
0.0
 10
345.7414256882905
 20
542.2474845534892
 30
0.0
 10
344.9801116747934
 20
540.5484929961627
 30
0.0
 10
342.891215494893
 20
539.8077180773005
 30
0.0
 10
341.6031654440321
 20
541.3563404946065
 30
0.0
 10
341.8296964252342
 20
542.3270206935681
 30
0.0
 10
341.945728664311
 20
542.8242162485217
 30
0.0
 11
341.945728664311
 21
542.8242162485217
 31
0.0
 11
342.1594185616732
 21
543.2925317027852
 31
0.0
 11
343.7640603997524
 21
544.3881917953644
 31
0.0
 11
345.1454213150018
 21
543.838687599718
 31
0.0
 11
345.5682877108311
 21
542.2465292009315
 31
0.0
 11
344.9198921927791
 21
540.8798105862229
 31
0.0
 11
342.7632752740582
 21
540.3021273772123
 31
0.0
 11
341.8470600275077
 21
541.3588691677464
 31
0.0
 11
341.945728664311
 21
542.8242162485217
 31
0.0
  0
LINE
  5
171E
100
AcDbEntity
  8
VHH-025
100
AcDbLine
 10
340.298954
 20
511.7
 30
0.0
 11
352.392825
 21
511.7
 31
0.0
  0
LINE
  5
171F
100
AcDbEntity
  8
VHH-025
100
AcDbLine
 10
343.392825
 20
504.215399
 30
0.0
 11
361.392825
 21
504.215399
 31
0.0
  0
LINE
  5
1720
100
AcDbEntity
  8
VHH-025
100
AcDbLine
 10
343.750964
 20
550.755023
 30
0.0
 11
345.226982
 21
550.755023
 31
0.0
  0
LINE
  5
1721
100
AcDbEntity
  8
VHH-025
100
AcDbLine
 10
343.268897
 20
548.433337
 30
0.0
 11
344.785846
 21
548.433337
 31
0.0
  0
LINE
  5
1722
100
AcDbEntity
  8
VHH-025
100
AcDbLine
 10
348.236044
 20
579.701023
 30
0.0
 11
347.707928
 21
577.060446
 31
0.0
  0
LINE
  5
1723
100
AcDbEntity
  8
VHH-025
100
AcDbLine
 10
354.436044
 20
579.701023
 30
0.0
 11
353.907928
 21
577.060446
 31
0.0
  0
ARC
  5
1724
100
AcDbEntity
  8
VHH-025
100
AcDbCircle
 10
331.141737
 20
579.551541
 30
0.0
 40
0.25
100
AcDbArc
 50
90.0
 51
180.0
  0
ARC
  5
1725
100
AcDbEntity
  8
VHH-025
100
AcDbCircle
 10
333.641737
 20
579.551541
 30
0.0
 40
0.25
100
AcDbArc
 50
0.0
 51
90.0
  0
SPLINE
  5
1726
100
AcDbEntity
  8
VHH-025
100
AcDbSpline
210
0.0
220
0.0
230
-1.0
 70
     8
 71
     3
 72
    14
 73
    10
 74
     0
 42
0.0000001
 43
0.0000001
 40
0.0
 40
0.0
 40
0.0
 40
0.0
 40
8.543455177382728
 40
32.60806185346405
 40
34.09251365044104
 40
35.82256549595564
 40
37.21403762249804
 40
38.48665207093368
 40
38.6143838058074
 40
38.6143838058074
 40
38.6143838058074
 40
38.6143838058074
 10
352.3917372985152
 20
608.3729801514031
 30
0.0
 10
349.542450820526
 20
608.360981117235
 30
0.0
 10
338.6674935832661
 20
608.3151840433097
 30
0.0
 10
326.8977651049835
 20
608.2312267889297
 30
0.0
 10
318.2093730773603
 20
607.9590829833191
 30
0.0
 10
316.7578589936137
 20
607.2382751519167
 30
0.0
 10
315.9274535669983
 20
605.936033184515
 30
0.0
 10
315.9033623190289
 20
604.9915641575558
 30
0.0
 10
315.8936878626964
 20
604.5193440493371
 30
0.0
 10
315.892825146514
 20
604.476283153705
 30
0.0
  0
ARC
  5
1727
100
AcDbEntity
  8
VHH-025
100
AcDbCircle
 10
348.100421
 20
-119.149534
 30
0.0
 40
730.516587
100
AcDbArc
 50
89.663337
 51
92.80173
  0
LINE
  5
1728
100
AcDbEntity
  8
VHH-025
100
AcDbLine
 10
274.284524
 20
587.734137
 30
0.0
 11
296.628293
 21
588.778119
 31
0.0
  0
SPLINE
  5
1729
100
AcDbEntity
  8
VHH-025
100
AcDbSpline
210
0.0
220
0.0
230
-1.0
 70
     8
 71
     3
 72
    11
 73
     7
 74
     5
 42
0.0000001
 43
0.0000001
 44
0.0000000001
 40
0.0
 40
0.0
 40
0.0
 40
0.0
 40
0.3788822097076336
 40
0.7856242620079092
 40
1.206550869508587
 40
1.477512281568232
 40
1.477512281568232
 40
1.477512281568232
 40
1.477512281568232
 10
288.119844953936
 20
585.7537630751844
 30
0.0
 10
288.2479771970274
 20
585.7545274824935
 30
0.0
 10
288.5136634613569
 20
585.7561125052593
 30
0.0
 10
288.8738980131293
 20
585.504952859743
 30
0.0
 10
288.9755626198567
 20
585.133530668
 30
0.0
 10
288.9779740716783
 20
584.903666846355
 30
0.0
 10
288.9789184591691
 20
584.8136461725848
 30
0.0
 11
288.119844953936
 21
585.7537630751844
 31
0.0
 11
288.4970023151172
 21
585.7176513909284
 31
0.0
 11
288.8284809587285
 21
585.481937568807
 31
0.0
 11
288.9666354623559
 21
585.0843290401894
 31
0.0
 11
288.9789184591691
 21
584.8136461725848
 31
0.0
  0
SPLINE
  5
172A
100
AcDbEntity
  8
VHH-025
100
AcDbSpline
210
0.0
220
0.0
230
-1.0
 70
     8
 71
     3
 72
    11
 73
     7
 74
     5
 42
0.0000001
 43
0.0000001
 44
0.0000000001
 40
0.0
 40
0.0
 40
0.0
 40
0.0
 40
0.7911843907099164
 40
1.600893155508356
 40
2.251444458122481
 40
2.582196256356861
 40
2.582196256356861
 40
2.582196256356861
 40
2.582196256356861
 10
272.6033685579614
 20
586.0385176264103
 30
0.0
 10
272.6468290370307
 20
586.3045943193701
 30
0.0
 10
272.7347675559073
 20
586.8429774846614
 30
0.0
 10
273.3054690211042
 20
587.3992969230023
 30
0.0
 10
273.8572024254255
 20
587.6387947754944
 30
0.0
 10
274.1768018222277
 20
587.7101023783361
 30
0.0
 10
274.2845239675216
 20
587.734136866607
 30
0.0
 11
272.6033685579614
 21
586.0385176264103
 31
0.0
 11
272.8113865303175
 21
586.8018663431053
 31
0.0
 11
273.3703154928762
 21
587.3877218701805
 31
0.0
 11
273.9633231614907
 21
587.6552268276996
 31
0.0
 11
274.2845239675216
 21
587.734136866607
 31
0.0
  0
SPLINE
  5
172B
100
AcDbEntity
  8
VHH-025
100
AcDbSpline
210
0.0
220
0.0
230
-1.0
 70
     8
 71
     3
 72
    12
 73
     8
 74
     6
 42
0.0000001
 43
0.0000001
 44
0.0000000001
 40
0.0
 40
0.0
 40
0.0
 40
0.0
 40
0.460609787038649
 40
0.8428341308476516
 40
1.231136252854545
 40
1.532631450480557
 40
1.823032378360215
 40
1.823032378360215
 40
1.823032378360215
 40
1.823032378360215
 10
275.0199948927156
 20
583.9202051532479
 30
0.0
 10
275.0304189497532
 20
584.0740984375368
 30
0.0
 10
275.049493123382
 20
584.3556958246457
 30
0.0
 10
275.2138480843117
 20
584.7431231334701
 30
0.0
 10
275.4891467510486
 20
584.990975475348
 30
0.0
 10
275.8016376612383
 20
585.1016695026361
 30
0.0
 10
275.997889430295
 20
585.124372972141
 30
0.0
 10
276.0941760815776
 20
585.1355119344121
 30
0.0
 11
275.0199948927156
 21
583.9202051532479
 31
0.0
 11
275.079175073487
 21
584.376997318373
 31
0.0
 11
275.2364158564205
 21
584.7253804195457
 31
0.0
 11
275.5249913629095
 21
584.985193265667
 31
0.0
 11
275.8071342666162
 21
585.0914699615109
 31
0.0
 11
276.0941760815776
 21
585.1355119344121
 31
0.0
  0
LINE
  5
172C
100
AcDbEntity
  8
VHH-025
100
AcDbLine
 10
276.094176
 20
585.135512
 30
0.0
 11
288.119845
 21
585.753763
 31
0.0
  0
LINE
  5
172D
100
AcDbEntity
  8
VHH-025
100
AcDbLine
 10
275.048613
 20
585.745316
 30
0.0
 11
289.216063
 21
586.442668
 31
0.0
  0
ARC
  5
172E
100
AcDbEntity
  8
VHH-025
100
AcDbCircle
 10
275.073195
 20
585.24592
 30
0.0
 40
0.5
100
AcDbArc
 50
92.817949
 51
179.819431
  0
ARC
  5
172F
100
AcDbEntity
  8
VHH-025
100
AcDbCircle
 10
289.240644
 20
585.943273
 30
0.0
 40
0.5
100
AcDbArc
 50
359.745727
 51
92.817949
  0
SPLINE
  5
1730
100
AcDbEntity
  8
VHH-025
100
AcDbSpline
210
0.0
220
0.0
230
-1.0
 70
     8
 71
     3
 72
    20
 73
    16
 74
     0
 42
0.0000001
 43
0.0000001
 40
0.0
 40
0.0
 40
0.0
 40
0.0
 40
0.411372432094715
 40
0.411372432094715
 40
0.7549641539760199
 40
0.7549641539760199
 40
1.460265566936419
 40
1.460265566936419
 40
1.780008105651267
 40
1.780008105651267
 40
2.128014443002301
 40
2.128014443002301
 40
2.476020780353334
 40
2.476020780353334
 40
2.570156969732271
 40
2.570156969732271
 40
2.570156969732271
 40
2.570156969732271
 10
296.5768339569867
 20
588.0800127985562
 30
0.0
 10
296.7155551580444
 20
588.069787384667
 30
0.0
 10
296.8377544013374
 20
588.060143726047
 30
0.0
 10
297.0254323705858
 20
588.0325845736502
 30
0.0
 10
297.0964717670913
 20
588.0165616940007
 30
0.0
 10
297.2731419158617
 20
587.9578439158917
 30
0.0
 10
297.3702577882695
 20
587.8945793828238
 30
0.0
 10
297.4769111362411
 20
587.775591834395
 30
0.0
 10
297.5055118272312
 20
587.7339537645507
 30
0.0
 10
297.5494020078231
 20
587.6489294260559
 30
0.0
 10
297.5619055249635
 20
587.6138866018768
 30
0.0
 10
297.5865213165607
 20
587.4890743606989
 30
0.0
 10
297.5952249995507
 20
587.4031906175973
 30
0.0
 10
297.603597386832
 20
587.2677466571953
 30
0.0
 10
297.6052887766682
 20
587.2374127361113
 30
0.0
 10
297.6070555909527
 20
587.2056418385049
 30
0.0
  0
SPLINE
  5
1731
100
AcDbEntity
  8
VHH-025
100
AcDbSpline
210
0.0
220
0.0
230
-1.0
 70
     8
 71
     3
 72
    11
 73
     7
 74
     5
 42
0.0000001
 43
0.0000001
 44
0.0000000001
 40
0.0
 40
0.0
 40
0.0
 40
0.0
 40
0.8012084873059352
 40
1.355387018409139
 40
1.955784421317266
 40
2.570156969731423
 40
2.570156969731423
 40
2.570156969731423
 40
2.570156969731423
 10
296.62829273033
 20
588.7781188038639
 30
0.0
 10
296.8984727302163
 20
588.7582033021059
 30
0.0
 10
297.3555303753631
 20
588.7245126797829
 30
0.0
 10
297.9314953937115
 20
588.3786628649501
 30
0.0
 10
298.2716450530093
 20
587.861843852962
 30
0.0
 10
298.2944447107945
 20
587.4518598500717
 30
0.0
 10
298.3059756873726
 20
587.2445095477446
 30
0.0
 11
296.62829273033
 21
588.7781188038639
 31
0.0
 11
297.4185986062429
 21
588.6463930940403
 31
0.0
 11
297.8906983097995
 21
588.3561591982984
 31
0.0
 11
298.2174664301573
 21
587.8524731483262
 31
0.0
 11
298.3059756873726
 21
587.2445095477446
 31
0.0
  0
LINE
  5
1732
100
AcDbEntity
  8
VHH-025
100
AcDbLine
 10
291.685992
 20
587.846433
 30
0.0
 11
296.660964
 21
588.078882
 31
0.0
  0
LINE
  5
1733
100
AcDbEntity
  8
VHH-025
100
AcDbLine
 10
237.390651
 20
585.5
 30
0.0
 11
247.2559
 21
585.5
 31
0.0
  0
SPLINE
  5
1734
100
AcDbEntity
  8
VHH-025
100
AcDbSpline
210
0.0
220
0.0
230
-1.0
 70
     8
 71
     3
 72
    15
 73
    11
 74
     9
 42
0.0000001
 43
0.0000001
 44
0.0000000001
 40
0.0
 40
0.0
 40
0.0
 40
0.0
 40
8.727930916723018
 40
16.25763323255754
 40
20.36216076943259
 40
21.62307303412758
 40
23.69549543386533
 40
25.38624445710601
 40
45.72281463409045
 40
79.43205808847188
 40
79.43205808847188
 40
79.43205808847188
 40
79.43205808847188
 10
247.2558995328554
 20
585.5000001546819
 30
0.0
 10
247.9546780899174
 20
588.3165902787383
 30
0.0
 10
249.2563022205259
 20
593.5630902384958
 30
0.0
 10
251.1863891775297
 20
600.1571665177063
 30
0.0
 10
253.4928078555142
 20
603.7812058379032
 30
0.0
 10
255.0310616744456
 20
605.7824605104723
 30
0.0
 10
256.7208092476897
 20
606.3205618189407
 30
0.0
 10
264.6568319667282
 20
607.1052661239076
 30
0.0
 10
283.2177544563691
 20
609.0216375837566
 30
0.0
 10
301.185840770026
 20
610.0672750766822
 30
0.0
 10
312.3928252755731
 20
610.7194560033026
 30
0.0
 11
247.2558995328554
 21
585.5000001546819
 31
0.0
 11
249.4212334216363
 21
593.9550641542732
 31
0.0
 11
251.9207555168204
 21
601.0577964637982
 31
0.0
 11
254.0891907569466
 21
604.5427691911441
 31
0.0
 11
254.9250050295149
 21
605.4868635937487
 31
0.0
 11
256.8411533910047
 21
606.2763634732259
 31
0.0
 11
258.5172620288894
 21
606.4983817013012
 31
0.0
 11
278.7602800305549
 21
608.446793553981
 31
0.0
 11
312.3928252755731
 21
610.7194560033026
 31
0.0
  0
SPLINE
  5
1735
100
AcDbEntity
  8
VHH-025
100
AcDbSpline
210
0.0
220
0.0
230
-1.0
 70
     8
 71
     3
 72
    14
 73
    10
 74
     0
 42
0.0000001
 43
0.0000001
 40
0.0
 40
0.0
 40
0.0
 40
0.0
 40
8.543455177382728
 40
32.60806185346405
 40
34.09251365044104
 40
35.82256549595564
 40
37.21403762249804
 40
38.48665207093368
 40
38.6143838058074
 40
38.6143838058074
 40
38.6143838058074
 40
38.6143838058074
 10
352.3961037105536
 20
608.3729801514031
 30
0.0
 10
355.2453901885428
 20
608.360981117235
 30
0.0
 10
366.1203474258009
 20
608.3151840433097
 30
0.0
 10
377.8900759040852
 20
608.2312267889297
 30
0.0
 10
386.5784679317066
 20
607.9590829833191
 30
0.0
 10
388.0299820154532
 20
607.2382751519167
 30
0.0
 10
388.8603874420687
 20
605.936033184515
 30
0.0
 10
388.8844786900381
 20
604.9915641575558
 30
0.0
 10
388.8941531463724
 20
604.5193440493371
 30
0.0
 10
388.895015862553
 20
604.476283153705
 30
0.0
  0
ARC
  5
1736
100
AcDbEntity
  8
VHH-025
100
AcDbCircle
 10
356.68742
 20
-119.149534
 30
0.0
 40
730.516587
100
AcDbArc
 50
87.19827
 51
90.336663
  0
LINE
  5
1737
100
AcDbEntity
  8
VHH-025
100
AcDbLine
 10
378.891737
 20
599.494917
 30
0.0
 11
383.891737
 21
599.494917
 31
0.0
  0
LINE
  5
1738
100
AcDbEntity
  8
VHH-025
100
AcDbLine
 10
345.891737
 20
582.301541
 30
0.0
 11
358.891737
 21
582.301541
 31
0.0
  0
ARC
  5
1739
100
AcDbEntity
  8
VHH-025
100
AcDbCircle
 10
358.891737
 20
581.551541
 30
0.0
 40
0.75
100
AcDbArc
 50
0.0
 51
90.0
  0
ARC
  5
173A
100
AcDbEntity
  8
VHH-025
100
AcDbCircle
 10
345.891737
 20
581.551541
 30
0.0
 40
0.75
100
AcDbArc
 50
90.0
 51
180.0
  0
CIRCLE
  5
173B
100
AcDbEntity
  8
VHH-025
100
AcDbCircle
 10
381.391737
 20
590.051541
 30
0.0
 40
2.0
  0
LINE
  5
173C
100
AcDbEntity
  8
VHH-025
100
AcDbLine
 10
381.391737
 20
595.16479
 30
0.0
 11
383.891737
 21
599.494917
 31
0.0
  0
LINE
  5
173D
100
AcDbEntity
  8
VHH-025
100
AcDbLine
 10
378.891737
 20
599.494917
 30
0.0
 11
381.391737
 21
595.16479
 31
0.0
  0
LWPOLYLINE
  5
185E
100
AcDbEntity
  8
VHH-025
100
AcDbPolyline
 90
        3
 70
     0
 43
0.0
 10
457.531941
 20
585.5
 10
455.2955
 20
585.5
 10
457.579072
 20
541.885357
  0
LINE
  5
185F
100
AcDbEntity
  8
VHH-025
100
AcDbLine
 10
450.409974
 20
604.207869
 30
0.0
 11
452.689495
 21
523.0
 31
0.0
  0
SPLINE
  5
1860
100
AcDbEntity
  8
VHH-025
100
AcDbSpline
210
0.0
220
0.0
230
1.0
 70
     8
 71
     3
 72
    11
 73
     7
 74
     5
 42
0.0000001
 43
0.0000001
 44
0.0000000001
 40
0.0
 40
0.0
 40
0.0
 40
0.0
 40
0.6501585836432341
 40
1.328696847749174
 40
2.007498148688284
 40
2.665365116566113
 40
2.665365116566113
 40
2.665365116566113
 40
2.665365116566113
 10
462.5091845468987
 20
513.2798863506819
 30
0.0
 10
462.4706951839631
 20
513.0617176408105
 30
0.0
 10
462.3920363821092
 20
512.6158570702106
 30
0.0
 10
461.9016320657526
 20
512.1199186768701
 30
0.0
 10
461.313888383961
 20
511.7706116462875
 30
0.0
 10
460.8655382183676
 20
511.7232902761222
 30
0.0
 10
460.6448740708993
 20
511.7000001546816
 30
0.0
 11
462.5091845468987
 21
513.2798863506819
 31
0.0
 11
462.3348338434562
 21
512.6535413849528
 31
0.0
 11
461.8856289344594
 21
512.1449854631614
 31
0.0
 11
461.2926947925616
 21
511.8145307619865
 31
0.0
 11
460.6448740708993
 21
511.7000001546816
 31
0.0
  0
SPLINE
  5
1861
100
AcDbEntity
  8
VHH-025
100
AcDbSpline
210
0.0
220
0.0
230
-1.0
 70
     8
 71
     3
 72
    13
 73
     9
 74
     7
 42
0.0000001
 43
0.0000001
 44
0.0000000001
 40
0.0
 40
0.0
 40
0.0
 40
0.0
 40
5.157331242127678
 40
11.03348381863841
 40
14.6191666271849
 40
16.78242660352459
 40
17.89174384221329
 40
18.52503597702181
 40
18.52503597702181
 40
18.52503597702181
 40
18.52503597702181
 10
456.9346347847795
 20
523.0000001114835
 30
0.0
 10
456.8456190040838
 20
524.7169780778855
 30
0.0
 10
456.6551805525282
 20
528.3902439046967
 30
0.0
 10
456.5263966229921
 20
533.2602549082184
 30
0.0
 10
456.5052738356605
 20
537.1399900125468
 30
0.0
 10
456.7507891189755
 20
539.4167616269997
 30
0.0
 10
457.0288860895812
 20
540.6932364663021
 30
0.0
 10
457.2327029812519
 20
541.2376587941419
 30
0.0
 10
457.3067733015423
 20
541.4355105809386
 30
0.0
 11
456.9346347847795
 21
523.0000001114835
 31
0.0
 11
456.687959502532
 21
528.1514287333471
 31
0.0
 11
456.531736195785
 21
534.0255042674939
 31
0.0
 11
456.5868137658826
 21
537.6107640439645
 31
0.0
 11
456.839141509331
 21
539.7592575708618
 31
0.0
 11
457.095094162124
 21
540.8386430328632
 31
0.0
 11
457.3067733015423
 21
541.4355105809386
 31
0.0
  0
SPLINE
  5
1862
100
AcDbEntity
  8
VHH-025
100
AcDbSpline
210
0.0
220
0.0
230
1.0
 70
     8
 71
     3
 72
    12
 73
     8
 74
     6
 42
0.0000001
 43
0.0000001
 44
0.0000000001
 40
0.0
 40
0.0
 40
0.0
 40
0.0
 40
0.5662025144877934
 40
1.132136061659873
 40
1.697787119143066
 40
2.263116602110201
 40
2.828292171029371
 40
2.828292171029371
 40
2.828292171029371
 40
2.828292171029371
 10
456.5436441851061
 20
513.4078597155207
 30
0.0
 10
456.5051099488315
 20
513.220990630652
 30
0.0
 10
456.4280597814821
 20
512.8473412307006
 30
0.0
 10
456.0891512524626
 20
512.3795073738374
 30
0.0
 10
455.6739229898609
 20
511.9881665273047
 30
0.0
 10
455.1414725430817
 20
511.7617161549864
 30
0.0
 10
454.7659088711556
 20
511.7205702874978
 30
0.0
 10
454.5781526009895
 20
511.7000001546816
 30
0.0
 11
456.5436441851061
 21
513.4078597155207
 31
0.0
 11
456.3907876958992
 21
512.8626806796805
 31
0.0
 11
456.0763360163991
 21
512.3921480866815
 31
0.0
 11
455.6542615969001
 21
512.0155656876818
 31
0.0
 11
455.1362527913997
 21
511.7891494741811
 31
0.0
 11
454.5781526009895
 21
511.7000001546816
 31
0.0
  0
SPLINE
  5
1863
100
AcDbEntity
  8
VHH-025
100
AcDbSpline
210
0.0
220
0.0
230
1.0
 70
     8
 71
     3
 72
    17
 73
    13
 74
    11
 42
0.0000001
 43
0.0000001
 44
0.0000000001
 40
0.0
 40
0.0
 40
0.0
 40
0.0
 40
0.5545798661044809
 40
1.653562178451522
 40
2.750923934510645
 40
3.84857121251147
 40
4.674193321130468
 40
5.488636099266186
 40
8.52417256482677
 40
12.84394436806059
 40
16.51294489443635
 40
20.18194542081096
 40
20.18194542081096
 40
20.18194542081096
 40
20.18194542081096
 10
457.5790723334967
 20
541.8853574984491
 30
0.0
 10
457.6069821389313
 20
541.7026698175605
 30
0.0
 10
457.6901993660528
 20
541.1579593835011
 30
0.0
 10
457.9245306994659
 20
540.2646237353074
 30
0.0
 10
458.4558657992594
 20
539.2910481188892
 30
0.0
 10
459.1248792897468
 20
538.5299702545462
 30
0.0
 10
459.8423844930867
 20
537.9564970038736
 30
0.0
 10
460.7156102834484
 20
536.6443091403921
 30
0.0
 10
461.5300646442419
 20
534.0215989233557
 30
0.0
 10
462.5824176372902
 20
530.4990277768228
 30
0.0
 10
463.0121698406984
 20
526.6252619162182
 30
0.0
 10
463.381411542115
 20
524.2084207388914
 30
0.0
 10
463.5660323928232
 20
523.000000150228
 30
0.0
 11
457.5790723334967
 21
541.8853574984491
 31
0.0
 11
457.6692850246882
 21
541.338164206973
 31
0.0
 11
457.9665277324611
 21
540.2801429900177
 31
0.0
 11
458.4888334280922
 21
539.3150525362402
 31
0.0
 11
459.2105620397751
 21
538.4880474830629
 31
0.0
 11
459.8140096062934
 21
537.9245735256313
 31
0.0
 11
460.2857923280253
 21
537.2606924351243
 31
0.0
 11
461.3967332057463
 21
534.4357513738
 31
0.0
 11
462.5076740834674
 21
530.2612767004761
 31
0.0
 11
463.0368532381462
 21
526.6306384253517
 31
0.0
 11
463.5660323928232
 21
523.000000150228
 31
0.0
  0
LINE
  5
1864
100
AcDbEntity
  8
VHH-025
100
AcDbLine
 10
443.492825
 20
508.1
 30
0.0
 11
434.492825
 21
508.1
 31
0.0
  0
LINE
  5
1865
100
AcDbEntity
  8
VHH-025
100
AcDbLine
 10
443.244297
 20
508.7
 30
0.0
 11
434.492825
 21
508.7
 31
0.0
  0
LINE
  5
1866
100
AcDbEntity
  8
VHH-025
100
AcDbLine
 10
434.492825
 20
509.7
 30
0.0
 11
444.244297
 21
509.7
 31
0.0
  0
LINE
  5
1867
100
AcDbEntity
  8
VHH-025
100
AcDbLine
 10
434.492825
 20
508.7
 30
0.0
 11
434.492825
 21
509.7
 31
0.0
  0
LINE
  5
1868
100
AcDbEntity
  8
VHH-025
100
AcDbLine
 10
434.492825
 20
508.1
 30
0.0
 11
434.492825
 21
508.7
 31
0.0
  0
LINE
  5
1869
100
AcDbEntity
  8
VHH-025
100
AcDbLine
 10
439.528366
 20
510.3
 30
0.0
 11
439.528366
 21
510.9
 31
0.0
  0
LINE
  5
186A
100
AcDbEntity
  8
VHH-025
100
AcDbLine
 10
449.870738
 20
511.7
 30
0.0
 11
450.077425
 21
511.7
 31
0.0
  0
LINE
  5
186B
100
AcDbEntity
  8
VHH-025
100
AcDbLine
 10
449.743959
 20
511.7
 30
0.0
 11
449.870738
 21
511.7
 31
0.0
  0
LINE
  5
186C
100
AcDbEntity
  8
VHH-025
100
AcDbLine
 10
449.674762
 20
511.7
 30
0.0
 11
449.743959
 21
511.7
 31
0.0
  0
LINE
  5
186D
100
AcDbEntity
  8
VHH-025
100
AcDbLine
 10
449.602403
 20
511.7
 30
0.0
 11
449.674762
 21
511.7
 31
0.0
  0
LINE
  5
186E
100
AcDbEntity
  8
VHH-025
100
AcDbLine
 10
449.282594
 20
511.7
 30
0.0
 11
449.602403
 21
511.7
 31
0.0
  0
LINE
  5
186F
100
AcDbEntity
  8
VHH-025
100
AcDbLine
 10
449.104563
 20
511.7
 30
0.0
 11
449.282594
 21
511.7
 31
0.0
  0
LINE
  5
1870
100
AcDbEntity
  8
VHH-025
100
AcDbLine
 10
448.914636
 20
511.7
 30
0.0
 11
449.104563
 21
511.7
 31
0.0
  0
LINE
  5
1871
100
AcDbEntity
  8
VHH-025
100
AcDbLine
 10
448.510992
 20
511.7
 30
0.0
 11
448.914636
 21
511.7
 31
0.0
  0
LINE
  5
1872
100
AcDbEntity
  8
VHH-025
100
AcDbLine
 10
448.078376
 20
511.7
 30
0.0
 11
448.510992
 21
511.7
 31
0.0
  0
ARC
  5
1873
100
AcDbEntity
  8
VHH-025
100
AcDbCircle
 10
447.892825
 20
510.7
 30
0.0
 40
1.6
100
AcDbArc
 50
270.0
 51
38.682187
  0
LINE
  5
1874
100
AcDbEntity
  8
VHH-025
100
AcDbLine
 10
444.244297
 20
509.7
 30
0.0
 11
443.244297
 21
508.7
 31
0.0
  0
LINE
  5
1875
100
AcDbEntity
  8
VHH-025
100
AcDbLine
 10
444.492825
 20
509.1
 30
0.0
 11
443.492825
 21
508.1
 31
0.0
  0
LINE
  5
1876
100
AcDbEntity
  8
VHH-025
100
AcDbLine
 10
447.892825
 20
509.1
 30
0.0
 11
444.492825
 21
509.1
 31
0.0
  0
ARC
  5
1877
100
AcDbEntity
  8
VHH-025
100
AcDbCircle
 10
447.892825
 20
510.7
 30
0.0
 40
1.0
100
AcDbArc
 50
270.0
 51
90.0
  0
LINE
  5
1878
100
AcDbEntity
  8
VHH-025
100
AcDbLine
 10
444.244297
 20
509.7
 30
0.0
 11
447.892825
 21
509.7
 31
0.0
  0
LINE
  5
1879
100
AcDbEntity
  8
VHH-025
100
AcDbLine
 10
463.587284
 20
522.0
 30
0.0
 11
462.509185
 21
513.279886
 31
0.0
  0
LINE
  5
187A
100
AcDbEntity
  8
VHH-025
100
AcDbLine
 10
461.44877
 20
523.0
 30
0.0
 11
461.589546
 21
522.0
 31
0.0
  0
LINE
  5
187B
100
AcDbEntity
  8
VHH-025
100
AcDbLine
 10
456.956013
 20
522.0
 30
0.0
 11
456.543644
 21
513.40786
 31
0.0
  0
LINE
  5
187C
100
AcDbEntity
  8
VHH-025
100
AcDbLine
 10
421.522458
 20
511.7
 30
0.0
 11
424.494423
 21
511.7
 31
0.0
  0
LINE
  5
187D
100
AcDbEntity
  8
VHH-025
100
AcDbLine
 10
412.587945
 20
511.7
 30
0.0
 11
418.547354
 21
511.7
 31
0.0
  0
LINE
  5
187E
100
AcDbEntity
  8
VHH-025
100
AcDbLine
 10
418.547354
 20
511.7
 30
0.0
 11
421.522458
 21
511.7
 31
0.0
  0
LWPOLYLINE
  5
187F
100
AcDbEntity
  8
VHH-025
100
AcDbPolyline
 90
        6
 70
     0
 43
0.0
 10
432.381402
 20
510.3
 10
432.379853
 20
510.299999
 10
432.010353
 20
510.228614
 10
431.685585
 20
510.01822
 10
431.465009
 20
509.70028
 10
431.381653
 20
509.322402
  0
LINE
  5
1880
100
AcDbEntity
  8
VHH-025
100
AcDbLine
 10
424.494423
 20
511.7
 30
0.0
 11
448.078376
 21
511.7
 31
0.0
  0
LINE
  5
1881
100
AcDbEntity
  8
VHH-025
100
AcDbLine
 10
457.531941
 20
585.5
 30
0.0
 11
467.390649
 21
585.5
 31
0.0
  0
ENDSEC
  0
SECTION
  2
OBJECTS
  0
DICTIONARY
  5
C
100
AcDbDictionary
  3
ACAD_GROUP
350
D
  3
ACAD_MLINESTYLE
350
E
  3
AMACAD
350
975
  0
DICTIONARY
  5
D
102
{ACAD_REACTORS
330
C
102
}
100
AcDbDictionary
  0
DICTIONARY
  5
E
102
{ACAD_REACTORS
330
C
102
}
100
AcDbDictionary
  3
STANDARD
350
1B
  0
DICTIONARY
  5
975
102
{ACAD_REACTORS
330
C
102
}
100
AcDbDictionary
  3
AM_LOADER
350
976
  0
MLINESTYLE
  5
1B
102
{ACAD_REACTORS
330
E
102
}
100
AcDbMlineStyle
  2
STANDARD
 70
     0
  3

 62
     0
 51
90.0
 52
90.0
 71
     2
 49
0.5
 62
   256
  6
BYLAYER
 49
-0.5
 62
   256
  6
BYLAYER
  0
AMLOADER
  5
976
102
{ACAD_REACTORS
330
975
102
}
100
AMLoader
 90
        1
 70
     3
 70
     0
 70
   921
 70
   861
280
     0
  0
ENDSEC
  0
EOF
